Home » I » Iron Maiden »

Iron Maiden - Fear Of The Dark Tabs

Artists:  A B C D E F G H I J K L M N O P Q R S T U V W X Y Z # 

Fear Of The Dark Tabs

(ver. 1) Click to play this song!
Iron Maiden
 Rating:
4.3/5 (27 votes)
                [Intro]

E|------------------------------|
B|------------------------------|
G|5-5---5-5-7-7-8-8-7-7-5-5-7-7-|
D|---5-5------------------------|
A|------------------------------|
E|------------------------------|

E|------------------------------|
B|------------------------------|
G|5-5---5-5-7-7-8-8-7-7-5-5-7-7-|
D|---5-5------------------------|
A|------------------------------|
E|------------------------------|

E|------------------------------|
B|------------------------------|
G|5-5---5-5-7-7-8-8-7-7-5-5-7-7-|
D|---5-5------------------------|
A|------------------------------|
E|------------------------------|

E|------------------------------|
B|------------------------------|
G|5-5---5-5-7-7-8-8-7-7-5-5-7-7-|
D|---5-5------------------------|
A|------------------------------|
E|------------------------------|            
Submit corrections

↑ Back to top | Tablatures and chords for acoustic guitar and electric guitar, ukulele, drums are parodies/interpretations of the original songs. You may use it for private study, scholarship, research or language learning purposes only