» » »

Iron Maiden - Children Of The Damned Bass

Artists:  A B C D E F G H I J K L M N O P Q R S T U V W X Y Z # 

Children Of The Damned Bass

(ver. 3) Click to play this song!
Iron Maiden
 Rating:
2/5 (25 votes)

 Children Of The Damned lessons Tabs too difficult? Try these video lessons and learn fast
 
                         Intro                                              
     S    H        E  S S E  E     H        E  E  S S  S  S  
G||----|------------------9-----|---------------------------|
D||----|----------------9----9--|--5--------L--4--5-4h-5p-4-|
A||----|--7--------L--7---------|---------------------------|
E||----|--0--------L------------|---------------------------|


  H        E  E  Q       E  E  Q    E  E  Q       H        E  S S E  E   
----------------------|------------------------|------------------9-----|
----------------------|-----3----------5-------|----------------9----9--|
--5--------L--5--5----|--3-----3----5-----5----|--7--------L--7---------|
----------------------|------------------------|--0--------L------------|


  H        E  E  S S  S  S    H        E  E  Q       E  E  Q    E  E  Q     
---------------------------|----------------------|------------------------|
--5--------L--4--5-4h-5p-4-|----------------------|-----3----------5-------|
---------------------------|--5--------L--5--5----|--3-----3----5-----5----|
---------------------------|----------------------|------------------------|


  Intro Solo                                                                  
  H          E  S S E  E     H        E  E  S S  S  S    H        E  E  Q     
--------------------9-----|---------------------------|----------------------|
------------------9----9--|--5--------L--4--5-4h-5p-4-|----------------------|
--7----------L--7---------|---------------------------|--5--------L--5--5----|
--0----------L------------|---------------------------|----------------------|


  E  E  Q    E  E  Q       H        E  S S E  E     H        E  E  S S  S  S  
------------------------|------------------9-----|---------------------------|
-----3----------5-------|----------------9----9--|--5--------L--4--5-4h-5p-4-|
--3-----3----5-----5----|--7--------L--7---------|---------------------------|
------------------------|--0--------L------------|---------------------------|


                                                  Verso Riff 1              
  H        E  E  Q       E  E  Q    E  E  Q       Q.           E  H         
----------------------|------------------------|---------------------------|
----------------------|-----3----------5-------|---------------------------|
--5--------L--5--5----|--3-----3----5-----5----|---------------7--7--------|
----------------------|------------------------|--0------------------------|


  E   E  Q    Q    E  E     Q.     E  H           E  E  E  E  E  E  E  E   
-------------------------|---------------------|--------------7-----------|
-------------------------|---------------------|--5-----5--7-----7--5-----|
--L\--0--2----2----0--2--|--3------3--3--------|-----5-----------------5--|
-------------------------|---------------------|--------------------------|


  Q.     E  H           E   E  Q    Q    E  E     Q.     E  H         
---------------------|-------------------------|---------------------|
---------------------|-------------------------|---------------------|
---------7--7--------|--L\--0--2----2----0--2--|--3------3--3--------|
--0------------------|-------------------------|---------------------|


  T  S. E  E  E  E  E  E  E     Q.     E  H           E   E  Q    Q    E  E   
-----------------7-----------|---------------------|-------------------------|
--5h-7--5-----7-----7--5-----|---------------------|-------------------------|
--------------------------5--|---------7--7--------|--L\--0--2----2----0--2--|
-----------------------------|--0------------------|-------------------------|


  Q.     E  H           E  E  E  E  E  E  E  E     Q.     E  H         
---------------------|--------------7-----------|---------------------|
---------------------|-----5-----7-----7--5-----|---------------------|
--3------3--3--------|--5-----7--------------5--|---------7--7--------|
---------------------|--------------------------|--0------------------|


  E   E  Q    Q    E  E     Q.     E  H           E  E  E  E  E  E  E  E   
-------------------------|---------------------|--------------7-----------|
-------------------------|---------------------|-----5-----7-----7--5-----|
--L\--0--2----2----0--2--|--3------3--3--------|--5-----7--------------5--|
-------------------------|---------------------|--------------------------|


  Coro                                                                
  Q.     E  Q    Q       Q     Q    Q    E  E     Q.     E  H         
----------------------|------------------------|---------------------|
----------------------|------------------------|---------------------|
------------7----7----|--L\----2----2----0--2--|--3------3--3--------|
--0------0------------|------------------------|---------------------|


  E  E  Q    E  E  E  E     Q.     E  Q    Q       Q     Q    Q    E  E   
-------------------------|----------------------|------------------------|
-------------------------|----------------------|------------------------|
--5--5-------0--0--------|------------7----7----|--L\----2----2----0--2--|
-------------------3--2--|--0------0------------|------------------------|


  Q.     E  H           E  E  Q    E  E  E  E     Q.     E  Q    Q     
---------------------|-------------------------|----------------------|
---------------------|-------------------------|----------------------|
--3------3--3--------|--5--5-------0--0--------|------------7----7----|
---------------------|-------------------3--2--|--0------0------------|


  Q     Q    Q    E  E     Q.     E  H           Q    E.  S E  E  E  E   
------------------------|---------------------|-------------------------|
------------------------|---------------------|-------------------------|
--L\----2----2----0--2--|--3------3--3--------|--5----5-----0--0--------|
------------------------|---------------------|-------------------3--2--|


  Q.     E  Q    Q       Q     Q    Q    E  E     Q.     E  H         
----------------------|------------------------|---------------------|
----------------------|------------------------|---------------------|
------------7----7----|--L\----2----2----0--2--|--3------3--3--------|
--0------0------------|------------------------|---------------------|


                            Verso Riff 1                                        
  E  E  Q    E  E  E  E     Q.           E  H           E   E  Q    Q    E  E   
-------------------------|---------------------------|-------------------------|
-------------------------|---------------------------|-------------------------|
--5--5-------0--0--------|---------------7--7--------|--L\--0--2----2----0--2--|
-------------------3--2--|--0------------------------|-------------------------|


  Q.     E  H           E  E  E  E  E  E  E  E     Q.     E  H         
---------------------|--------------7-----------|---------------------|
---------------------|--5-----5--7-----7--5-----|---------------------|
--3------3--3--------|-----5-----------------5--|---------7--7--------|
---------------------|--------------------------|--0------------------|


  E   E  Q    Q    E  E     Q.     E  H           T  S. E  E  E  E  E  E  E   
-------------------------|---------------------|-----------------7-----------|
-------------------------|---------------------|--5h-7--5-----7-----7--5-----|
--L\--0--2----2----0--2--|--3------3--3--------|--------------------------5--|
-------------------------|---------------------|-----------------------------|


  Q.     E  H           E   E  Q    Q    E  E     Q.     E  H         
---------------------|-------------------------|---------------------|
---------------------|-------------------------|---------------------|
---------7--7--------|--L\--0--2----2----0--2--|--3------3--3--------|
--0------------------|-------------------------|---------------------|


  E  E  E  E  E  E  E  E     Q.     E  H           E   E  Q    Q    E  E   
--------------7-----------|---------------------|-------------------------|
-----5-----7-----7--5-----|---------------------|-------------------------|
--5-----7--------------5--|---------7--7--------|--L\--0--2----2----0--2--|
--------------------------|--0------------------|-------------------------|


                                                   Coro                 
  Q.     E  H           E  E  E  E  E  E  E  E     Q.     E  Q    Q     
---------------------|--------------7-----------|----------------------|
---------------------|-----5-----7-----7--5-----|----------------------|
--3------3--3--------|--5-----7--------------5--|------------7----7----|
---------------------|--------------------------|--0------0------------|


  Q     Q    Q    E  E     Q.     E  H           E  E  Q    E  E  E  E   
------------------------|---------------------|-------------------------|
------------------------|---------------------|-------------------------|
--L\----2----2----0--2--|--3------3--3--------|--5--5-------0--0--------|
------------------------|---------------------|-------------------3--2--|


  Q.     E  Q    Q       Q     Q    Q    E  E     Q.     E  H         
----------------------|------------------------|---------------------|
----------------------|------------------------|---------------------|
------------7----7----|--L\----2----2----0--2--|--3------3--3--------|
--0------0------------|------------------------|---------------------|


  E  E  Q    E  E  E  E     Q.     E  Q    Q       Q     Q    Q    E  E   
-------------------------|----------------------|------------------------|
-------------------------|----------------------|------------------------|
--5--5-------0--0--------|------------7----7----|--L\----2----2----0--2--|
-------------------3--2--|--0------0------------|------------------------|


  Q.     E  H           Q    E.  S E  E  E  E     Q.     E  Q    Q     
---------------------|-------------------------|----------------------|
---------------------|-------------------------|----------------------|
--3------3--3--------|--5----5-----0--0--------|------------7----7----|
---------------------|-------------------3--2--|--0------0------------|


  Q     Q    Q    E  E     Q.     E  H           Q    Q    Q     
------------------------|---------------------|-----------------|
------------------------|---------------------|--7----5----4----|
--L\----2----2----0--2--|--3------3--3--------|-----------------|
------------------------|---------------------|-----------------|


  Break                                                         
  E     E  S S E  S S E  S S E     S S E  S S E  S S E  S S E   
--------------------------------|------------------------------|
--------------------------------|------------------------------|
--5-----7--7-7-7--7-7-7--7-7-7--|--7-7-7--7-7-7--7-7-7--7-7-7--|
--------------------------------|------------------------------|


  >                                                         
  Q    S S E  S S E  S S E     S S E  S S E  S S E  S S E   
----------------------------|------------------------------|
----------------------------|------------------------------|
--5----5-5-5--5-5-5--5-5-5--|--5-5-5--5-5-5--5-5-5--5-5-5--|
----------------------------|------------------------------|


  >                            >                          
  Q    S S E  S S E  S S E     Q    S S E  S S E  S S E   
----------------------------|----------------------------|
----------------------------|----------------------------|
--3----3-3-3--3-3-3--3-3-3--|--5----5-5-5--5-5-5--5-5-5--|
----------------------------|----------------------------|


  >                                                     >   
  Q    S S E  S S E  S S E     S S E  S S E  S S E  S S E   
----------------------------|------------------------------|
----------------------------|------------------------------|
--7----7-7-7--7-7-7--7-7-7--|--7-7-7--7-7-7--7-7-7--7-7-5--|
----------------------------|------------------------------|


  Verso Riff 2                                                      
  >                                                                 
  Q            S S E  S S E  S S E     S S E  S S E  S S E  S S E   
------------------------------------|------------------------------|
------------------------------------|------------------------------|
--7------------7-7-7--7-7-7--7-7-7--|--7-7-7--7-7-7--7-7-7--7-7-7--|
------------------------------------|------------------------------|


  >                                                         
  Q    S S E  S S E  S S E     S S E  S S E  S S E  S S E   
----------------------------|------------------------------|
----------------------------|------------------------------|
--5----5-5-5--5-5-5--5-5-5--|--5-5-5--5-5-5--5-5-5--5-5-5--|
----------------------------|------------------------------|


  >                            >                          
  Q    S S E  S S E  S S E     Q    S S E  S S E  S S E   
----------------------------|----------------------------|
----------------------------|----------------------------|
--3----3-3-3--3-3-3--3-3-3--|--5----5-5-5--5-5-5--5-5-5--|
----------------------------|----------------------------|


  >                                                     >   
  Q    S S E  S S E  S S E     S S E  S S E  S S E  S S E   
----------------------------|------------------------------|
----------------------------|------------------------------|
--7----7-7-7--7-7-7--7-7-7--|--7-7-7--7-7-7--7-7-7--7-7-5--|
----------------------------|------------------------------|


  >                                                         
  Q    S S E  S S E  S S E     S S E  S S E  S S E  S S E   
----------------------------|------------------------------|
----------------------------|------------------------------|
--7----7-7-7--7-7-7--7-7-7--|--7-7-7--7-7-7--7-7-7--7-7-7--|
----------------------------|------------------------------|


  >                                                         
  Q    S S E  S S E  S S E     S S E  S S E  S S E  S S E   
----------------------------|------------------------------|
----------------------------|------------------------------|
--5----5-5-5--5-5-5--5-5-5--|--5-5-5--5-5-5--5-5-5--5-5-5--|
----------------------------|------------------------------|


  >                            >                          
  Q    S S E  S S E  S S E     Q    S S E  S S E  S S E   
----------------------------|----------------------------|
----------------------------|----------------------------|
--3----3-3-3--3-3-3--3-3-3--|--5----5-5-5--5-5-5--5-5-5--|
----------------------------|----------------------------|


  >                                                     >   
  Q    S S E  S S E  S S E     S S E  S S E  S S E  S S E   
----------------------------|------------------------------|
----------------------------|------------------------------|
--7----7-7-7--7-7-7--7-7-7--|--7-7-7--7-7-7--7-7-7--7-7-5--|
----------------------------|------------------------------|


  >                                                         
  Q    S S E  S S E  S S E     S S E  S S E  S S E  S S E   
----------------------------|------------------------------|
----------------------------|------------------------------|
--7----7-7-7--7-7-7--7-7-7--|--7-7-7--7-7-7--7-7-7--7-7-7--|
----------------------------|------------------------------|


  >                                                         
  Q    S S E  S S E  S S E     S S E  S S E  S S E  S S E   
----------------------------|------------------------------|
----------------------------|------------------------------|
--5----5-5-5--5-5-5--5-5-5--|--5-5-5--5-5-5--5-5-5--5-5-5--|
----------------------------|------------------------------|


  >                            >                          
  Q    S S E  S S E  S S E     Q    S S E  S S E  S S E   
----------------------------|----------------------------|
----------------------------|----------------------------|
--3----3-3-3--3-3-3--3-3-3--|--5----5-5-5--5-5-5--5-5-5--|
----------------------------|----------------------------|


  >                                                      
  Q    S S E  S S E  S S E     S S E  E  E  E  E  E  E   
----------------------------|---------------------------|
----------------------------|---------------------------|
--7----7-7-7--7-7-7--7-7-7--|--7-7-7--7--7--7--7--7--7--|
----------------------------|---------------------------|


  Interludio                                               
  >          >           >              >              >   
  Q          E  E  E  E  E  E     E  E  E  E  E  E  E  E   
-------------------------------|--------------------------|
-------------------------------|--------------------------|
--7----------7--7--7--7--7--7--|--7--7--7--7--7--7--7--2--|
-------------------------------|--------------------------|


        >           >              >           >  >   
  E  E  E  E  E  E  E  E     E  E  E  E  E  E  E  E   
--------------------------|--------------------------|
--------------------------|--------------------------|
--L--2--2--2--2--2--2--2--|--2--2--2--2--2--2--2--3--|
--------------------------|--------------------------|


        >           >  >           >           >  >   
  E  E  E  E  E  E  E  E     E  E  E  E  E  E  E  E   
--------------------------|--------------------------|
--------------------------|--------------------------|
--L--3--3--3--3--3--3--5--|--L--5--5--5--5--5--5--7--|
--------------------------|--------------------------|


        >           >        >  >     >  >     >  >   
  E  E  E  E  E  E  E  E     E  E  E  E  E  E  E  E   
--------------------------|--------------------------|
--------------------------|--------------------------|
--L--7--7--7--7--7--7--7--|--7--7-----5--5-----7--7--|
--------------------------|--------------------------|


        >           >              >              >   
  E  E  E  E  E  E  E  E     E  E  E  E  E  E  E  E   
--------------------------|--------------------------|
--------------------------|--------------------------|
--L--7--7--7--7--7--7--7--|--7--7--7--7--7--7--7--2--|
--------------------------|--------------------------|


        >           >              >           >  >   
  E  E  E  E  E  E  E  E     E  E  E  E  E  E  E  E   
--------------------------|--------------------------|
--------------------------|--------------------------|
--L--2--2--2--2--2--2--2--|--2--2--2--2--2--2--2--3--|
--------------------------|--------------------------|


        >           >  >           >           >  >           >           >     
  E  E  E  E  E  E  E  E     E  E  E  E  E  E  E  E     E  E  E  E  E  E  Q     
--------------------------|--------------------------|-------------------------|
--------------------------|--------------------------|-------------------------|
--L--3--3--3--3--3--3--5--|--L--5--5--5--5--5--5--7--|--L--7--7--7--7--7--7----|
--------------------------|--------------------------|-------------------------|


                                Solo Adrian Smith                       
                          >                          >           >      
  S S S S Q    S S S S E  E     E                 E  E  E  E  E  E  E   
-----------------------------|-----------------------------------------|
-----------------------------|-----------------------------------------|
--7-7-7-7-7----5-5-5-5-5--7--|--L-----------------7--7--7--7--7--7--7--|
-----------------------------|-----------------------------------------|


        >              >           >           >      
  E  E  E  E  E  E  E  E     E  E  E  E  E  E  E  E   
--------------------------|--------------------------|
--------------------------|--------------------------|
--7--7--7--7--7--7--7--2--|--L--2--2--2--2--2--2--2--|
--------------------------|--------------------------|


        >           >  >           >           >  >   
  E  E  E  E  E  E  E  E     E  E  E  E  E  E  E  E   
--------------------------|--------------------------|
--------------------------|--------------------------|
--2--2--2--2--2--2--2--3--|--L--3--3--3--3--3--3--5--|
--------------------------|--------------------------|


        >           >  >           >           >      
  E  E  E  E  E  E  E  E     E  E  E  E  E  E  E  E   
--------------------------|--------------------------|
--------------------------|--------------------------|
--L--5--5--5--5--5--5--7--|--L--7--7--7--7--7--7--7--|
--------------------------|--------------------------|


  >  >     >  >     >  >           >           >      
  E  E  E  E  E  E  E  E     E  E  E  E  E  E  E  E   
--------------------------|--------------------------|
--------------------------|--------------------------|
--7--7-----5--5-----7--7--|--L--7--7--7--7--7--7--7--|
--------------------------|--------------------------|


        >              >           >           >      
  E  E  E  E  E  E  E  E     E  E  E  E  E  E  E  E   
--------------------------|--------------------------|
--------------------------|--------------------------|
--7--7--7--7--7--7--7--2--|--L--2--2--2--2--2--2--2--|
--------------------------|--------------------------|


        >           >  >           >           >  >   
  E  E  E  E  E  E  E  E     E  E  E  E  E  E  E  E   
--------------------------|--------------------------|
--------------------------|--------------------------|
--2--2--2--2--2--2--2--3--|--L--3--3--3--3--3--3--5--|
--------------------------|--------------------------|


        >           >  >           >           >                              
  E  E  E  E  E  E  E  E     E  E  E  E  E  E  E  E     S S S S Q    S S S S  
--------------------------|--------------------------|-----------------------|
--------------------------|--------------------------|-----------------------|
--L--5--5--5--5--5--5--7--|--L--7--7--7--7--7--7--7--|--7-7-7-7-7----5-5-5-5-|
--------------------------|--------------------------|-----------------------|


        Coro                                                      
        >                                                         
  E     Q    S S E  S S E  S S E     S S E  S S E  S S E  S S E   
-----|----------------------------|------------------------------|
-----|----------------------------|------------------------------|
--5--|--7----7-7-7--7-7-7--7-7-7--|--7-7-7--7-7-7--7-7-7--7-7-7--|
-----|----------------------------|------------------------------|


  >                                                         
  Q    S S E  S S E  S S E     S S E  S S E  S S E  S S E   
----------------------------|------------------------------|
----------------------------|------------------------------|
--5----5-5-5--5-5-5--5-5-5--|--5-5-5--5-5-5--5-5-5--5-5-5--|
----------------------------|------------------------------|


  >                                                         
  Q    S S E  S S E  S S E     S S E  S S E  S S E  S S E   
----------------------------|------------------------------|
----------------------------|------------------------------|
--3----3-3-3--3-3-3--3-3-3--|--3-3-3--3-3-3--3-3-3--3-3-3--|
----------------------------|------------------------------|


  >                                                         
  Q    S S E  S S E  S S E     S S E  S S E  S S E  S S E   
----------------------------|------------------------------|
----------------------------|------------------------------|
--5----5-5-5--5-5-5--5-5-5--|--5-5-5--5-5-5--5-5-5--5-5-5--|
----------------------------|------------------------------|


  >                                                         
  Q    S S E  S S E  S S E     S S E  S S E  S S E  S S E   
----------------------------|------------------------------|
----------------------------|------------------------------|
--7----7-7-7--7-7-7--7-7-7--|--7-7-7--7-7-7--7-7-7--7-7-7--|
----------------------------|------------------------------|


  >                                                         
  Q    S S E  S S E  S S E     S S E  S S E  S S E  S S E   
----------------------------|------------------------------|
----------------------------|------------------------------|
--5----5-5-5--5-5-5--5-5-5--|--5-5-5--5-5-5--5-5-5--5-5-5--|
----------------------------|------------------------------|


  >                                                         
  Q    S S E  S S E  S S E     S S E  S S E  S S E  S S E   
----------------------------|------------------------------|
----------------------------|------------------------------|
--3----3-3-3--3-3-3--3-3-3--|--3-3-3--3-3-3--3-3-3--3-3-3--|
----------------------------|------------------------------|


  >                                                         
  Q    S S E  S S E  S S E     S S E  S S E  S S E  S S E   
----------------------------|------------------------------|
----------------------------|------------------------------|
--5----5-5-5--5-5-5--5-5-5--|--5-5-5--5-5-5--5-5-5--5-5-5--|
----------------------------|------------------------------|


  Verso Riff 3                                                      
  >                                                                 
  Q            S S E  S S E  S S E     S S E  S S E  S S E  S S E   
------------------------------------|------------------------------|
------------------------------------|------------------------------|
--7------------7-7-7--7-7-7--7-7-7--|--7-7-7--7-7-7--7-7-7--7-7-7--|
------------------------------------|------------------------------|


  >                                                         
  Q    S S E  S S E  S S E     S S E  S S E  S S E  S S E   
----------------------------|------------------------------|
----------------------------|------------------------------|
--5----5-5-5--5-5-5--5-5-5--|--5-5-5--5-5-5--5-5-5--5-5-5--|
----------------------------|------------------------------|


  >                                                         
  Q    S S E  S S E  S S E     S S E  S S E  S S E  S S E   
----------------------------|------------------------------|
----------------------------|------------------------------|
--3----3-3-3--3-3-3--3-3-3--|--3-3-3--3-3-3--3-3-3--3-3-3--|
----------------------------|------------------------------|


  >                                                         
  Q    S S E  S S E  S S E     S S E  S S E  S S E  S S E   
----------------------------|------------------------------|
----------------------------|------------------------------|
--5----5-5-5--5-5-5--5-5-5--|--5-5-5--5-5-5--5-5-5--5-5-5--|
----------------------------|------------------------------|


  >                                                         
  Q    S S E  S S E  S S E     S S E  S S E  S S E  S S E   
----------------------------|------------------------------|
----------------------------|------------------------------|
--7----7-7-7--7-7-7--7-7-7--|--7-7-7--7-7-7--7-7-7--7-7-7--|
----------------------------|------------------------------|


  >                                                         
  Q    S S E  S S E  S S E     S S E  S S E  S S E  S S E   
----------------------------|------------------------------|
----------------------------|------------------------------|
--5----5-5-5--5-5-5--5-5-5--|--5-5-5--5-5-5--5-5-5--5-5-5--|
----------------------------|------------------------------|


  >                                                         
  Q    S S E  S S E  S S E     S S E  S S E  S S E  S S E   
----------------------------|------------------------------|
----------------------------|------------------------------|
--3----3-3-3--3-3-3--3-3-3--|--3-3-3--3-3-3--3-3-3--3-3-3--|
----------------------------|------------------------------|


  Outro                                                                   
  E     E  E  E  E  E  E  E     Q    Q    Q    Q       Q    H.            
-----------------------------|----------------------|-------9------------|
-----------------------------|----------------------|-------9------------|
--5-----5--5--5--5--5--5--5--|--L----7----5---------|-------7------------|
-----------------------------|-----------------3----|--5----0------------|


     |-3-| |-3-| |-3-| |-3-| |-3-| |-3-| |-3-|  
  E  S S S S S S S S S S S S S S S S S S S S S  
--L--------------------------------------------|
--L--------------------------------9-9-9-9-9-9-|
--L--7-7-7-7-7-7-7-7-7-7-7-7-7-7-7-------------|
--L--------------------------------------------|


  |-3-| |-3-| |-3-| |-3-| |-3-| |-3-| |-3-|                                 
  S S S S S S S S S S S S S S S S S S S S S S S    E  E  Q    E  Q     E    
--9-9-9-9-9-9-----------------------------------|-------------------------||
--------------9-9-9-9-9-9-----------------------|-------------------------||
--------------------------7-7-7-7-7-7-----------|-------------7--L\-------||
--------------------------------------0-0-0-0-0-|--0--0--0----------------||
            
Submit corrections


        Children Of The Damned lessons Hard to play? Try these video lessons and learn fast Children Of The Damned lessons
        
↑ Back to top | Tablatures and chords for acoustic guitar and electric guitar, ukulele, drums are parodies/interpretations of the original songs. You may use it for private study, scholarship, research or language learning purposes only