» » »

Iron Maiden - Children Of The Damned Drum

Artists:  A B C D E F G H I J K L M N O P Q R S T U V W X Y Z # 

Children Of The Damned Drum

(ver. 1) Click to play this song!
Iron Maiden
 Rating:
2.3/5 (25 votes)

 Children Of The Damned lessons Tabs too difficult? Try these video lessons and learn fast
 
                          Intro                                              
     S     S     S  S  S  S  S  S  S  S  S  S  S  S  S  S  S  
C||----|--51----51-51-51-51-51-51-51-51-51-51-51-51-51-51-51-|
C||----|-----------------------------------------------------|
C||----|-----------------------------------------------------|
C||----|-----------------------------------------------------|
C||----|-----------------------------------------------------|
C||----|-----------------------------------------------------|


   S  S  S  S  S  S  S  S  S  S  S  S  S  S  S  S  
--51-51-51-51-51-51-51-51-51-51-51-51-51-51-51-51-|
--------------------------------------------------|
--------------------------------------------------|
--------------------------------------------------|
--------------------------------------------------|
--------------------------------------------------|


   S  S  S  S  S  S  S  S  S  S  S  S  S  S  S  S  
--51-51-51-51-51-51-51-51-51-51-51-51-51-51-51-51-|
--------------------------------------------------|
--------------------------------------------------|
--------------------------------------------------|
--------------------------------------------------|
--------------------------------------------------|


   S  S  S  S  S  S  S  S  S  S  S  S  E   E   
--51-51-51-51-51-51-51-51-51-51-51-51-51--51--|
----------------------------------------------|
----------------------------------------------|
----------------------------------------------|
----------------------------------------------|
----------------------------------------------|


   S  S  S  S  S  S  S  S  S  S  S  S  S  S  S  S  
--51-51-51-51-51-51-51-51-51-51-51-51-51-51-51-51-|
--------------------------------------------------|
--41----------------------------------------------|
--------------------------------------------------|
--36----------------------------------------------|
--------------------------------------------------|


   S  S  S  S  S  S  S  S  S  S  S  S  S  S  S  S  
--51-51-51-51-51-51-51-51-51-51-51-51-51-51-51-51-|
--------------------------------------------------|
--------------------------------------------------|
--------------------------------------------------|
--------------------------------------------------|
--------------------------------------------------|


   S  S  S  S  S  S  S  S  S  S  S  S  S  S  S  S  
--51-51-51-51-51-51-51-51-51-51-51-51-51-51-51-51-|
--------------------------------------------------|
--------------------------------------------------|
--------------------------------------------------|
--------------------------------------------------|
--------------------------------------------------|


   S  S  S  S  S  S  S  S  S  S  S  S  E   E   
--51-51-51-51-51-51-51-51-51-51-51-51-51--51--|
----------------------------------------------|
----------------------------------------------|
----------------------------------------------|
----------------------------------------------|
----------------------------------------------|


   Intro Solo                                                  
   Q          E   E   Q     Q        Q     E   E   Q     Q     
--44---------44---L--44----44----|--44----44---L--44----44----|
---------------------38----------|----------------38----------|
---------------------------------|----------------------------|
--49-----------------------------|----------------------------|
--36-------------36--------------|--36--------36--------------|
---------------------------------|----------------------------|


   Q     E   E   Q     E   S  S     E   E   E   S  S  E   E   E   E   
--44----44---L--44----44--------|------------------------------------|
----------------38--------38-38-|--38--------------------------------|
--------------------------------|------48--48--47-47-45--45--43--41--|
--------------------------------|------------------------------------|
--36--------36------------------|----------------------------36--36--|
--------------------------------|------------------------------------|


   Q     Q     Q     Q        Q     E   E   Q     E   E   
--44----44----44----44----|--44----44---L--44----44---L--|
--------------38----------|----------------38------------|
--------------------------|------------------------------|
--49----------------------|------------------------------|
--36----------36----------|--36--------36------------36--|
--------------------------|------------------------------|


                           |--3--|                                 
   Q     E   E   Q     E   S  S  S     E   E   Q     E   E   Q     
--44----44---L--44----44-----------|------------------------------|
----------------38--------38-38-38-|--38--------------------------|
-----------------------------------|------48--48----45--45--43----|
-----------------------------------|------------------------------|
--36--------36---------------------|------------------------------|
-----------------------------------|------------------------------|


   Verso Riff 1                                                  
   Q            Q     Q     E   E      E   E   Q     Q     Q     
--44-----------44----44----44---L--|--44---L--44----44----44----|
---------------------38------------|----------------38----------|
-----------------------------------|----------------------------|
--49-------------------------------|----------------------------|
--36---------------------------36--|------36--36----------------|
-----------------------------------|----------------------------|


   Q     E   E   Q     Q        E   E      Q     E   E      E   E   
--44----44------44----44----|--44---L-----------44---L-------------|
----------------38----------|----------38g38------------38g38------|
----------------------------|--------------------------------------|
----------------------------|--------------------------------------|
--36--------36--------------|--36--36-----------36--36---------36--|
----------------------------|--------------------------------------|


   Q     E   E   Q     E   E      E   E   Q     Q     E   E   
--44----44---L--44----44---L--|--44---L--46----44----44---L--|
----------------38------------|----------------38------------|
------------------------------|------------------------------|
--49--------------------------|------------------------------|
--36--------36------------36--|------36--36--------------36--|
------------------------------|------------------------------|


   Q     E   E   Q     E   E      E   E   E   E   E   E   E   E   
--44----44------44----44---L--|------46--42----------46--42------|
----------------38--------38--|--38----------38--38--------------|
------------------------------|----------------------------------|
------------------------------|----------------------------------|
--36--------36----------------|------36--------------36------36--|
------------------------------|----------------------------------|


   Q     E   E   Q     E   E      E   E   Q     Q     E   E   
--44----44---L--44----44---L--|--44---L--46----44----44---L--|
----------------38------------|----------------38------------|
------------------------------|------------------------------|
--49--------------------------|------------------------------|
--36--------36------------36--|------36--36--------------36--|
------------------------------|------------------------------|


   Q     E   E   Q     Q        E   E      E   E   E   E      E   E   
--44----44------44----44----|--44---L-------------44---L-------------|
----------------38----------|----------38g38--------------38g38------|
----------------------------|----------------------------------------|
----------------------------|----------------------------------------|
--36--------36--------------|--36--36---------36--36--36---------36--|
----------------------------|----------------------------------------|


   Q     Q     Q     E   E      E   E   Q     Q     Q     
--44----44----44----44---L--|--44---L--46----44----44----|
--------------38------------|----------------38----------|
----------------------------|----------------------------|
--49------------------------|----------------------------|
--36--------------------36--|------36--36----------------|
----------------------------|----------------------------|


   Q     E   E   Q     Q        S  S  S  S  S  S  S  S  S  S  S  S  S  S  S  S  
--44----44------44----46----|--------------------------------------------------|
----------------38----38----|--------------------------------------------------|
----------------------------|--48-48-48-47-47-47-45-45-45-43-43-43-41-41-41-41-|
----------------------------|--------------------------------------------------|
--36--------36--------------|--36----------36----------36----------36-------36-|
----------------------------|--------------------------------------------------|


   Coro                                                     
   Q     E   E   Q     E   E      E   E   Q     Q     Q     
--44----44---L--44----44---L--|--44---L--44----44----44----|
----------------38------------|----------------38----------|
----------------55------------|----------------55----------|
--49------------49------------|----------------49----------|
--36--------36------------36--|------36--36----------------|
------------------------------|----------------------------|


                           |--3--|                                     
   Q     E   E   Q     E   S  S  S     E   E   E   E   E   E   E   E   
--44----44---L--44-----------------|----------------------------------|
----------------38--------38-38-38-|----------------------------------|
-----------------------------------|--50--50--48--48--47--47--45--45--|
--49------------49-----------------|----------------------------------|
--36--------36--------36-----------|--36--------------36--------------|
-----------------------------------|----------------------------------|


   Q     E   E   Q     E   E      E   E   Q     Q     Q     
--44----44---L--44----44---L--|--44---L--44----44----44----|
----------------38------------|----------------38----------|
----------------55------------|----------------55----------|
--49------------49------------|----------------49----------|
--36--------36------------36--|------36--36----------------|
------------------------------|----------------------------|


   Q     E   E   Q     Q           E      Q.      E   E   E   E   
--44----44---L--44----46----|------------------------------------|
----------------38----------|--38g38--38g38----------------------|
----------------------------|--------------------47--47--45--43--|
--49------------49----------|--------------------47--47--45--43--|
--36--------36--------36----|-----36-----------------------------|
----------------------------|------------------------------------|


   Q     E   E   Q     E   E      E   E   Q     Q     Q     
--44----44---L--44----44---L--|--44---L--44----44----44----|
----------------38------------|----------------38----------|
----------------55------------|----------------55----------|
--49------------49------------|----------------49----------|
--36--------36------------36--|------36--36----------------|
------------------------------|----------------------------|


                           |--3--|                                     
   Q     E   E   Q     E   S  S  S     E   E   E   E   E   E   E   E   
--44----44---L--44-----------------|----------------------------------|
----------------38--------38-38-38-|----------------------------------|
-----------------------------------|--50--50--48--48--47--47--45--45--|
--49------------49-----------------|----------------------------------|
--36--------36--------36-----------|--36--------------36--------------|
-----------------------------------|----------------------------------|


   Q     E   E   Q     E   E      E   E   Q     Q     Q     
--44----44---L--44----44---L--|--44---L--44----44----44----|
----------------38------------|----------------38----------|
----------------55------------|----------------55----------|
--49------------49------------|----------------49----------|
--36--------36------------36--|------36--36----------------|
------------------------------|----------------------------|


   Q     E   E   Q     Q           E      Q.      E   E   E   E   
--44----44---L--44----46----|------------------------------------|
----------------38----------|--38g38--38g38------38--38----------|
----------------------------|----------------------------45--43--|
--49------------49----------|------------------------------------|
--36--------36--------36----|-----36-----36------36------36------|
----------------------------|------------------------------------|


   Verso Riff 1                                                  
   Q            Q     Q     E   E      E   E   Q     Q     Q     
--44-----------44----44----44---L--|--44---L--44----44----44----|
---------------------38------------|----------------38----------|
-----------------------------------|----------------------------|
--49-------------------------------|----------------------------|
--36---------------------------36--|------36--36----------------|
-----------------------------------|----------------------------|


   Q     E   E   Q     Q        E   E      Q     E   E      E   E   
--44----44------44----44----|--44---L-----------44---L-------------|
----------------38----------|----------38g38------------38g38------|
----------------------------|--------------------------------------|
----------------------------|--------------------------------------|
--36--------36--------------|--36--36-----------36--36---------36--|
----------------------------|--------------------------------------|


   Q     E   E   Q     E   E      E   E   Q     Q     E   E   
--44----44---L--44----44---L--|--44---L--46----44----44---L--|
----------------38------------|----------------38------------|
------------------------------|------------------------------|
--49--------------------------|------------------------------|
--36--------36------------36--|------36--36--------------36--|
------------------------------|------------------------------|


   Q     E   E   Q     E   E      E   E   E   E   E   E   E   E   
--44----44------44----44---L--|------46--42----------46--42------|
----------------38--------38--|--38----------38--38--------------|
------------------------------|----------------------------------|
------------------------------|----------------------------------|
--36--------36----------------|------36--------------36------36--|
------------------------------|----------------------------------|


   Q     E   E   Q     E   E      E   E   Q     Q     E   E   
--44----44---L--44----44---L--|--44---L--46----44----44---L--|
----------------38------------|----------------38------------|
------------------------------|------------------------------|
--49--------------------------|------------------------------|
--36--------36------------36--|------36--36--------------36--|
------------------------------|------------------------------|


   Q     E   E   Q     Q        E   E      E   E   E   E      E   E   
--44----44------44----44----|--44---L-------------44---L-------------|
----------------38----------|----------38g38--------------38g38------|
----------------------------|----------------------------------------|
----------------------------|----------------------------------------|
--36--------36--------------|--36--36---------36--36--36---------36--|
----------------------------|----------------------------------------|


   Q     Q     Q     E   E      E   E   Q     Q     Q     
--44----44----44----44---L--|--44---L--46----44----44----|
--------------38------------|----------------38----------|
----------------------------|----------------------------|
--49------------------------|----------------------------|
--36--------------------36--|------36--36----------------|
----------------------------|----------------------------|


   Q     E   E   Q     Q        S  S  S  S  S  S  S  S  S  S  S  S  S  S  S  S  
--44----44------44----46----|--------------------------------------------------|
----------------38----38----|--------------------------------------------------|
----------------------------|--48-48-48-47-47-47-45-45-45-43-43-43-41-41-41-41-|
----------------------------|--------------------------------------------------|
--36--------36--------------|--36----------36----------36----------36-------36-|
----------------------------|--------------------------------------------------|


   Coro                                                     
   Q     E   E   Q     E   E      E   E   Q     Q     Q     
--44----44---L--44----44---L--|--44---L--44----44----44----|
----------------38------------|----------------38----------|
----------------55------------|----------------55----------|
--49------------49------------|----------------49----------|
--36--------36------------36--|------36--36----------------|
------------------------------|----------------------------|


                           |--3--|                                     
   Q     E   E   Q     E   S  S  S     E   E   E   E   E   E   E   E   
--44----44---L--44-----------------|----------------------------------|
----------------38--------38-38-38-|----------------------------------|
-----------------------------------|--50--50--48--48--47--47--45--45--|
--49------------49-----------------|----------------------------------|
--36--------36--------36-----------|--36--------------36--------------|
-----------------------------------|----------------------------------|


   Q     E   E   Q     E   E      E   E   Q     Q     Q     
--44----44---L--44----44---L--|--44---L--44----44----44----|
----------------38------------|----------------38----------|
----------------55------------|----------------55----------|
--49------------49------------|----------------49----------|
--36--------36------------36--|------36--36----------------|
------------------------------|----------------------------|


   Q     E   E   Q     Q           E      Q.      E   E   E   E   
--44----44---L--44----46----|------------------------------------|
----------------38----------|--38g38--38g38----------------------|
----------------------------|--------------------47--47--45--43--|
--49------------49----------|--------------------47--47--45--43--|
--36--------36--------36----|-----36-----------------------------|
----------------------------|------------------------------------|


   Q     E   E   Q     E   E      E   E   Q     Q     Q     
--44----44---L--44----44---L--|--44---L--44----44----44----|
----------------38------------|----------------38----------|
----------------55------------|----------------55----------|
--49------------49------------|----------------49----------|
--36--------36------------36--|------36--36----------------|
------------------------------|----------------------------|


                           |--3--|                                     
   Q     E   E   Q     E   S  S  S     E   E   E   E   E   E   E   E   
--44----44---L--44-----------------|----------------------------------|
----------------38--------38-38-38-|----------------------------------|
-----------------------------------|--50--50--48--48--47--47--45--45--|
--49------------49-----------------|----------------------------------|
--36--------36--------36-----------|--36--------------36--------------|
-----------------------------------|----------------------------------|


   Q     E   E   Q     E   E      E   E   Q     Q     Q     
--44----44---L--44----44---L--|--44---L--44----44----44----|
----------------38------------|----------------38----------|
----------------55------------|----------------55----------|
--49------------49------------|----------------49----------|
--36--------36------------36--|------36--36----------------|
------------------------------|----------------------------|


   Q     E   E   Q     Q           Q     Q     Q     
--44----44---L--44----46----|-----------------------|
----------------38----------|--38g38----48----47----|
----------------------------|-----48----47----45----|
--49------------49----------|-----------------------|
--36--------36--------36----|-----36----36----36----|
----------------------------|-----------------------|


   Break                                           
   E     S  S  S  S  S  S  S  S  S  S  S  S  S  S  
--------------------------------------------------|
--45----38-38-38-38-38-38-38-38-38-38-38-38-38-38-|
--43----------------------------------------------|
--------49--L--L--L-------------------------------|
--36----36----------36----------36----------36----|
--------------------------------------------------|


   S  S  S  S  S  S  S  S  S  S  S  S  S  S  S  S  
--------------------------------------------------|
--38-38-38-38-38-38-38-38-38-38-38-38-38-38-38-38-|
--------------------------------------------------|
--------------------------------------------------|
--------36----------36----------36----------36----|
--------------------------------------------------|


   S  S  S  S  S  S  S  S  S  S  S  S  S  S  S  S  
--------------------------------------------------|
--38-38-38-38-38-38-38-38-38-38-38-38-38-38-38-38-|
--------------------------------------------------|
--49--L--L--L-------------------------------------|
--------36----------36----------36----------36----|
--------------------------------------------------|


   S  S  S  S  S  S  S  S  S  S  S  S  S  S  S  S  
--------------------------------------------------|
--38-38-38-38-38-38-38-38-38-38-38-38-38-38-38-38-|
--------------------------------------------------|
--------------------------------------------49--L-|
--------36----------36----------36----------36----|
--------------------------------------------------|


   S  S  S  S  S  S  S  S  S  S  S  S  S  S  S  S  
--------------------------------------------------|
--38-38-38-38-38-38-38-38-38-38-38-38-38-38-38-38-|
--------------------------------------------------|
--57--L--L--L-------------------------------------|
--36----36----------36----------36----------36----|
--------------------------------------------------|


   S  S  S  S  S  S  S  S  S  S  S  S  S  S  S  S  
--------------------------------------------------|
--38-38-38-38-38-38-38-38-38-38-38-38-38-38-38-38-|
--------------------------------------------------|
--49--L--L--L-------------------------------------|
--------36----------36----------36----------36----|
--------------------------------------------------|


   S  S  S  S  S  S  S  S  S  S  S  S  S  S  S  S  
--------------------------------------------------|
--38-38-38-38-38-38-38-38-38-38-38-38-38-38-38-38-|
--------------------------------------------------|
--49--L--L--L-------------------------------------|
--------36----------36----------36----------36----|
--------------------------------------------------|


   S  S  S  S  S  S  S  S  S  S  S  S  S  S  S  S  
--------------------------------------------------|
--38-38-38-38-38-38-38-38-38-38-38-38-38-38-38-38-|
--------------------------------------------------|
--------------------------------------------49--L-|
--------36----------36----------36----------36----|
--------------------------------------------------|


   Verso Riff 2                                              
   S            S  S  S  S  S  S  S  S  S  S  S  S  S  S  S  
------------------------------------------------------------|
--38-----------38-38-38-38-38-38-38-38-38-38-38-38-38-38-38-|
------------------------------------------------------------|
--57------------L--L--L-------------------------------------|
--36--------------36----------36----------36----------36----|
------------------------------------------------------------|


   S  S  S  S  S  S  S  S  S  S  S  S  S  S  S  S  
--------------------------------------------------|
--38-38-38-38-38-38-38-38-38-38-38-38-38-38-38-38-|
--------------------------------------------------|
--------------------------------------------49--L-|
--------36----------36----------36----------36----|
--------------------------------------------------|


   S  S  S  S  S  S  S  S  S  S  S  S  S  S  S  S  
--------------------------------------------------|
--38-38-38-38-38-38-38-38-38-38-38-38-38-38-38-38-|
--------------------------------------------------|
--57--L--L--L-------------------------------------|
--36----36----------36----------36----------36----|
--------------------------------------------------|


   S  S  S  S  S  S  S  S  S  S  S  S  S  S  S  S  
--------------------------------------------------|
--38-38-38-38-38-38-38-38-38-38-38-38-38-38-38-38-|
--------------------------------------------------|
--------------------------------------------------|
--------36----------36----------36----------36----|
--------------------------------------------------|


   S  S  S  S  S  S  S  S  S  S  S  S  S  S  S  S  
--------------------------------------------------|
--38-38-38-38-38-38-38-38-38-38-38-38-38-38-38-38-|
--------------------------------------------------|
--49--L--L--L-------------------------------------|
--------36----------36----------36----------36----|
--------------------------------------------------|


   S  S  S  S  S  S  S  S  S  S  S  S  S  S  S  S  
--------------------------------------------------|
--38-38-38-38-38-38-38-38-38-38-38-38-38-38-38-38-|
--------------------------------------------------|
--49--L--L--L-------------------------------------|
--------36----------36----------36----------36----|
--------------------------------------------------|


   S  S  S  S  S  S  S  S  S  S  S  S  S  S  S  S  
--------------------------------------------------|
--38-38-38-38-38-38-38-38-38-38-38-38-38-38-38-38-|
--------------------------------------------------|
--49--L--L--L-------------------------------------|
--------36----------36----------36----------36----|
--------------------------------------------------|


   S  S  S  S  S  S  S  S  S  S  S  S  S  S  S  S  
--------------------------------------------------|
--38-38-38-38-38-38-38-38-38-38-38-38-38-38-38-38-|
--------------------------------------------------|
--------------------------------------------49--L-|
--------36----------36----------36----------36----|
--------------------------------------------------|


   S  S  S  S  S  S  S  S  S  S  S  S  S  S  S  S  
--------------------------------------------------|
--38-38-38-38-38-38-38-38-38-38-38-38-38-38-38-38-|
--------------------------------------------------|
--57--L--L--L-------------------------------------|
--36----36----------36----------36----------36----|
--------------------------------------------------|


   S  S  S  S  S  S  S  S  S  S  S  S  S  S  S  S  
--------------------------------------------------|
--38-38-38-38-38-38-38-38-38-38-38-38-38-38-38-38-|
--------------------------------------------------|
--------------------------------------------49--L-|
--------36----------36----------36----------36----|
--------------------------------------------------|


   S  S  S  S  S  S  S  S  S  S  S  S  S  S  S  S  
--------------------------------------------------|
--38-38-38-38-38-38-38-38-38-38-38-38-38-38-38-38-|
--------------------------------------------------|
--57--L--L--L-------------------------------------|
--36----36----------36----------36----------36----|
--------------------------------------------------|


   S  S  S  S  S  S  S  S  S  S  S  S  S  S  S  S  
--------------------------------------------------|
--38-38-38-38-38-38-38-38-38-38-38-38-38-38-38-38-|
--------------------------------------------------|
--------------------------------------------------|
--------36----------36----------36----------36----|
--------------------------------------------------|


   S  S  S  S  S  S  S  S  S  S  S  S  S  S  S  S  
--------------------------------------------------|
--38-38-38-38-38-38-38-38-38-38-38-38-38-38-38-38-|
--------------------------------------------------|
--49--L--L--L-------------------------------------|
--------36----------36----------36----------36----|
--------------------------------------------------|


   S  S  S  S  S  S  S  S  S  S  S  S  S  S  S  S  
--------------------------------------------------|
--38-38-38-38-38-38-38-38-38-38-38-38-38-38-38-38-|
--------------------------------------------------|
--49--L--L--L-------------------------------------|
--------36----------36----------36----------36----|
--------------------------------------------------|


   S  S  S  S  S  S  S  S  S  S  S  S  S  S  S  S  
--------------------------------------------------|
--38-38-38-38-38-38-38-38-38-38-38-38-38-38-38-38-|
--------------------------------------------------|
--49--L--L--L-------------------------------------|
--------36----------36----------36----------36----|
--------------------------------------------------|


   S  S  S  S  S  S  S  S  S  S  S  S  S  S  S  S  
--------------------------------------------------|
--38-38-38-38-38-38-38-38-38-38-38-38-38-38-38-38-|
--------------------------------------------------|
--------------------------------57--L-49--L-57--L-|
--------36----------36----------36----------36----|
--------------------------------------------------|


   S  S  S  S  S  S  S  S  S  S  S  S  S  S  S  S  
--------------------------------------------------|
--38-38-38-38-38-38-38-38-38-38-38-38-38-38-38-38-|
--------------------------------------------------|
--49--L--L--L-------------------------------------|
--------36----------36----------36----------36----|
--------------------------------------------------|


   S  S  S  S  S  S  S  S  S  S  S  S  S  S  S  S  
--------------------------------------------------|
--38-38-38-38-38-38-38-38-38-38-38-38-38-38-38-38-|
--------------------------------------------------|
--------------------------------------------------|
--------36----------36----------36----------36----|
--------------------------------------------------|


   S  S  S  S  S  S  S  S  S  S  S  S  S  S  S  S  
--------------------------------------------------|
--38-38-38-38-38-38-38-38-38-38-38-38-38-38-38-38-|
--------------------------------------------------|
--49--L--L--L-------------------------------------|
--------36----------36----------36----------36----|
--------------------------------------------------|


   S  S  S  S  S  S  S  S  S  S  S  S  S  S  S  S  
--------------------------------------------------|
--38-38-38-38-38-38-38-38-38-38-38-38-38-38-38-38-|
--------------------------------------------------|
--------------------------------------------------|
--------36----------36----------36----------36----|
--------------------------------------------------|


   S  S  S  S  S  S  S  S  S  S  S  S  S  S  S  S  
--------------------------------------------------|
--38-38-38-38-38-38-38-38-38-38-38-38-38-38-38-38-|
--------------------------------------------------|
--49--L--L--L-------------------------------------|
--------36----------36----------36----------36----|
--------------------------------------------------|


   S  S  S  S  S  S  S  S  S  S  S  S  S  S  S  S  
--------------------------------------------------|
--38-38-38-38-38-38-38-38-38-38-38-38-38-38-38-38-|
--------------------------------------------------|
--49--L--L--L-------------------------------------|
--------36----------36----------36----------36----|
--------------------------------------------------|


   S  S  S  S  S  S  S  S  S  S  S  S  S  S  S  S  
--------------------------------------------------|
--38-38-38-38-38-38-38-38-38-38-38-38-38-38-38-38-|
--------------------------------------------------|
--49--L--L--L-------------------------------------|
--------36----------36----------36----------36----|
--------------------------------------------------|


   S  S  S  S  E   E   S  S  S  S  E   E   
------------------------------------------|
--38-38-38-38-38--38--38-38-38-38-38--38--|
------------------------------------------|
------------------------------------------|
--------36--------------------------------|
------------------------------------------|


   Interludio                                              
   S          S  S  S  S  S  S  S  S  S  S  S  S  S  S  S  
--46---------46-46-46-46-46-46-46-46-46-46-46-46-46-46-46-|
----------------------38----------------------38----------|
----------------------------------------------------------|
--49------------------------------------------------------|
--36------------------------------36----36----------------|
----------------------------------------------------------|


   S  S  S  S  S  S  S  S  S  S  S  S  S  S  E   
--46-46-46-46-46-46-46-46-46-46-46-46-46-46-44--|
--------------38----------------------38--------|
------------------------------------------------|
--------------------------------------------57--|
--36----------------------36----36----------36--|
------------------------------------------------|


   E   S  S  S  S  S  S  S  S  S  S  S  S  S  S  
---L--46-46-46-46-46-46-46-46-46-46-46-46-46-46-|
------------38----------------------38----------|
------------------------------------------------|
---L--------------------------------------------|
---L--36----------------36----36----------------|
------------------------------------------------|


   S  S  S  S  S  S  S  S  S  S  S  S  S  S  E   
--46-46-46-46-46-46-46-46-46-46-46-46-46-46-44--|
--------------38----------------------38--------|
------------------------------------------------|
--------------------------------------------49--|
--36----------------------36----36----------36--|
------------------------------------------------|


   E   S  S  S  S  S  S  S  S  S  S  S  S  S  S  
---L--46-46-46-46-46-46-46-46-46-46-46-46-46-46-|
------------38----------------------38----------|
------------------------------------------------|
---L--------------------------------------------|
---L--36----------------36----36----------------|
------------------------------------------------|


   S  S  S  S  S  S  S  S  S  S  S  S  S  S  E   
--46-46-46-46-46-46-46-46-46-46-46-46-46-46-44--|
--------------38----------------------38--------|
------------------------------------------------|
--57----------------------------------------49--|
--36----------------------36----36----------36--|
------------------------------------------------|


   E   S  S  S  S  S  S  S  S  S  S  S  S  S  S  
---L--46-46-46-46-46-46-46-46-46-46-46-46-46-46-|
------------38----------------------38----------|
------------------------------------------------|
---L--------------------------------------------|
---L--36----------------36----36----------------|
------------------------------------------------|


      E   Q     E   E   E   E   E   
-----------------------44--44--44--|
--38g38--38----38--38------38--38--|
-----------------------------------|
---------49----------------46--49--|
---------36----36--36------36------|
-----------------------------------|


   E   S  S  S  S  S  S  S  S  S  S  S  S  S  S  
---L--46-46-46-46-46-46-46-46-46-46-46-46-46-46-|
------------38----------------------38----------|
------------------------------------------------|
---L--------------------------------------------|
--36--------------------36----36----------------|
------------------------------------------------|


   S  S  S  S  S  S  S  S  S  S  S  S  S  S  E   
--46-46-46-46-46-46-46-46-46-46-46-46-46-46-44--|
--------------38----------------------38--------|
------------------------------------------------|
--------------------------------------------57--|
--36----------------------36----36----------36--|
------------------------------------------------|


   E   S  S  S  S  S  S  S  S  S  S  S  S  S  S  
---L--46-46-46-46-46-46-46-46-46-46-46-46-46-46-|
------------38----------------------38----------|
------------------------------------------------|
---L--------------------------------------------|
---L--36----------------36----36----------------|
------------------------------------------------|


   S  S  S  S  S  S  S  S  S  S  S  S  S  S  E   
--46-46-46-46-46-46-46-46-46-46-46-46-46-46-44--|
--------------38----------------------38--------|
------------------------------------------------|
--------------------------------------------49--|
--36----------------------36----36----------36--|
------------------------------------------------|


   E   S  S  S  S  S  S  S  S  S  S  S  S  S  S  
---L--46-46-46-46-46-46-46-46-46-46-46-46-46-46-|
------------38----------------------38----------|
------------------------------------------------|
---L--------------------------------------------|
---L--36----------------36----36----------------|
------------------------------------------------|


   S  S  S  S  S  S  S  S  S  S  S  S  S  S  E   
--46-46-46-46-46-46-46-46-46-46-46-46-46-46-44--|
--------------38----------------------38--------|
------------------------------------------------|
--57----------------------------------------49--|
--36----------------------36----36----------36--|
------------------------------------------------|


   E   S  S  S  S  S  S  S  S  S  S     Q     
---L--46-46-46-46-46-46-46-46-46-46----44----|
------------38----------------------38g38----|
---------------------------------------------|
---L-----------------------------------------|
---L--36----------------36----36-------------|
---------------------------------------------|


   S  S  S  S  Q     S  S  S  S  E   E   
------------------------------------44--|
--38-38-38-38-38----38-38-38-38-38------|
----------------------------------------|
------------------------------------49--|
--36----------------36--------------36--|
----------------------------------------|


   Solo Adrian Smith                                           
   E                 S  S  S  S  S  S  S  S  S  S  S  S  S  S  
---L----------------46-46-46-46-46-46-46-46-46-46-46-46-46-46-|
--------------------------38----------------------38----------|
--------------------------------------------------------------|
---L----------------------------------------------------------|
---L----------------36----------------36----36----------------|
--------------------------------------------------------------|


   S  S  S  S  S  S  S  S  S  S  S  S  S  S  E   
--46-46-46-46-46-46-46-46-46-46-46-46-46-46-44--|
--------------38----------------------38--------|
------------------------------------------------|
--------------------------------------------57--|
--36----------------------36----36----------36--|
------------------------------------------------|


   E   S  S  S  S  S  S  S  S  S  S  S  S  S  S  
---L--46-46-46-46-46-46-46-46-46-46-46-46-46-46-|
------------38----------------------38----------|
------------------------------------------------|
---L--------------------------------------------|
---L--36----------------36----36----------------|
------------------------------------------------|


   S  S  S  S  S  S  S  S  S  S  S  S  S  S  E   
--46-46-46-46-46-46-46-46-46-46-46-46-46-46-44--|
--------------38----------------------38--------|
------------------------------------------------|
--------------------------------------------49--|
--36----------------------36----36----------36--|
------------------------------------------------|


   E   S  S  S  S  S  S  S  S  S  S  S  S  E   
---L--46-46-46-46-46-46-46-46-46-46-46-46-44--|
------------38----------------------38--------|
----------------------------------------------|
---L--------------------------------------57--|
---L--36----------------36----36----------36--|
----------------------------------------------|


   E   S  S  S  S  S  S  S  S  S  S  S  S  E   
---L--46-46-46-46-46-46-46-46-46-46-46-46-44--|
------------38----------------------38--------|
----------------------------------------------|
---L--------------------------------------49--|
---L--36----------------36----36----------36--|
----------------------------------------------|


   E   S  S  S  S  S  S  S  S  S  S  S  S  S  S  
---L--46-46-46-46-46-46-46-46-46-46-46-46-46-46-|
------------38----------------------38----------|
------------------------------------------------|
---L--------------------------------------------|
---L--36----------------36----36----------------|
------------------------------------------------|


      E   Q     E   E   E   E   E   
-----------------------44--44--44--|
--38g38--38----38--38------38--38--|
-----------------------------------|
---------49----------------46--49--|
---------36----36--36------36------|
-----------------------------------|


   E   S  S  S  S  S  S  S  S  S  S  S  S  S  S  
---L--46-46-46-46-46-46-46-46-46-46-46-46-46-46-|
---L--------38----------------------38----------|
------------------------------------------------|
---L--------------------------------------------|
--36--------------------36----36----------------|
------------------------------------------------|


   S  S  S  S  S  S  S  S  S  S  S  S  S  S  E   
--46-46-46-46-46-46-46-46-46-46-46-46-46-46-44--|
--------------38----------------------38--------|
------------------------------------------------|
--------------------------------------------57--|
--36----------------------36----36----------36--|
------------------------------------------------|


   E   S  S  S  S  S  S  S  S  S  S  S  S  S  S  
---L--46-46-46-46-46-46-46-46-46-46-46-46-46-46-|
------------38----------------------38----------|
------------------------------------------------|
---L--------------------------------------------|
---L--36----------------36----36----------------|
------------------------------------------------|


   S  S  S  S  S  S  S  S  S  S  S  S  S  S  E   
--46-46-46-46-46-46-46-46-46-46-46-46-46-46-44--|
--------------38----------------------38--------|
------------------------------------------------|
--------------------------------------------49--|
--36----------------------36----36----------36--|
------------------------------------------------|


   E   S  S  S  S  S  S  S  S  S  S  S  S  E   
---L--46-46-46-46-46-46-46-46-46-46-46-46-44--|
------------38----------------------38--------|
----------------------------------------------|
---L--------------------------------------57--|
---L--36----------------36----36----------36--|
----------------------------------------------|


   E   S  S  S  S  S  S  S  S  S  S  S  S  E   
---L--46-46-46-46-46-46-46-46-46-46-46-46-44--|
------------38----------------------38--------|
----------------------------------------------|
---L--------------------------------------49--|
---L--36----------------36----36----------36--|
----------------------------------------------|


   E   S  S  S  S  S  S  S  S  S  S  S  S  S  S  
---L--46-46-46-46-46-46-46-46-46-46-46-46-46-46-|
------------38----------------------38----------|
------------------------------------------------|
---L--------------------------------------------|
---L--36----------------36----36----------------|
------------------------------------------------|


   S  S  S  S  Q     S  S  S  S     E   
--------------------------------|------|
--38-38-38-38-38----38-38-38-38-|--38--|
--------------------------------|------|
--------------------------------|------|
--36----------------36----------|------|
--------------------------------|------|


   Coro                                              
   S    S  S  S  S  S  S  S  S  S  S  S  S  S  S  S  
----------------------------------------------------|
--38----L-38-38-38-38-38-38-38-38-38-38-38-38-38-38-|
----------------------------------------------------|
--49----L--L--L-------------------------------------|
----------36----------36----------36----------36----|
----------------------------------------------------|


   S  S  S  S  S  S  S  S  S  S  S  S  S  S  S  S  
--------------------------------------------------|
--38-38-38-38-38-38-38-38-38-38-38-38-38-38-38-38-|
--------------------------------------------------|
--------------------------------------------------|
--------36----------36----------36----------36----|
--------------------------------------------------|


   S  S  S  S  S  S  S  S  S  S  S  S  S  S  S  S  
--------------------------------------------------|
--38-38-38-38-38-38-38-38-38-38-38-38-38-38-38-38-|
--------------------------------------------------|
--49--L--L--L-------------------------------------|
--------36----------36----------36----------36----|
--------------------------------------------------|


   S  S  S  S  S  S  S  S  S  S  S  S  S  S  S  S  
--------------------------------------------------|
--38-38-38-38-38-38-38-38-38-38-38-38-38-38-38-38-|
--------------------------------------------------|
--------------------------------------------------|
--------36----------36----------36----------36----|
--------------------------------------------------|


   S  S  S  S  S  S  S  S  S  S  S  S  S  S  S  S  
--------------------------------------------------|
--38-38-38-38-38-38-38-38-38-38-38-38-38-38-38-38-|
--------------------------------------------------|
--49--L--L--L-------------------------------------|
--------36----------36----------36----------36----|
--------------------------------------------------|


   S  S  S  S  S  S  S  S  S  S  S  S  S  S  S  S  
--------------------------------------------------|
--38-38-38-38-38-38-38-38-38-38-38-38-38-38-38-38-|
--------------------------------------------------|
--------------------------------------------------|
--------36----------36----------36----------36----|
--------------------------------------------------|


   S  S  S  S  S  S  S  S  S  S  S  S  S  S  S  S  
--------------------------------------------------|
--38-38-38-38-38-38-38-38-38-38-38-38-38-38-38-38-|
--------------------------------------------------|
--49--L--L--L-------------------------------------|
--------36----------36----------36----------36----|
--------------------------------------------------|


   S  S  S  S  S  S  S  S  S  S  S  S  S  S  S  S  
--------------------------------------------------|
--38-38-38-38-38-38-38-38-38-38-38-38-38-38-38-38-|
--------------------------------------------------|
--------------------------------------------------|
--------36----------36----------36----------36----|
--------------------------------------------------|


   S  S  S  S  S  S  S  S  S  S  S  S  S  S  S  S  
--------------------------------------------------|
--38-38-38-38-38-38-38-38-38-38-38-38-38-38-38-38-|
--------------------------------------------------|
--49--L--L--L-------------------------------------|
--------36----------36----------36----------36----|
--------------------------------------------------|


   S  S  S  S  S  S  S  S  S  S  S  S  S  S  S  S  
--------------------------------------------------|
--38-38-38-38-38-38-38-38-38-38-38-38-38-38-38-38-|
--------------------------------------------------|
--------------------------------------------------|
--------36----------36----------36----------36----|
--------------------------------------------------|


   S  S  S  S  S  S  S  S  S  S  S  S  S  S  S  S  
--------------------------------------------------|
--38-38-38-38-38-38-38-38-38-38-38-38-38-38-38-38-|
--------------------------------------------------|
--49--L--L--L-------------------------------------|
--------36----------36----------36----------36----|
--------------------------------------------------|


   S  S  S  S  S  S  S  S  S  S  S  S  S  S  S  S  
--------------------------------------------------|
--38-38-38-38-38-38-38-38-38-38-38-38-38-38-38-38-|
--------------------------------------------------|
--------------------------------------------------|
--------36----------36----------36----------36----|
--------------------------------------------------|


   S  S  S  S  S  S  S  S  S  S  S  S  S  S  S  S  
--------------------------------------------------|
--38-38-38-38-38-38-38-38-38-38-38-38-38-38-38-38-|
--------------------------------------------------|
--49--L--L--L-------------------------------------|
--------36----------36----------36----------36----|
--------------------------------------------------|


   S  S  S  S  S  S  S  S  S  S  S  S  S  S  S  S  
--------------------------------------------------|
--38-38-38-38-38-38-38-38-38-38-38-38-38-38-38-38-|
--------------------------------------------------|
--------------------------------------------------|
--------36----------36----------36----------36----|
--------------------------------------------------|


   S  S  S  S  S  S  S  S  S  S  S  S  S  S  S  S  
--------------------------------------------------|
--38-38-38-38-38-38-38-38-38-38-38-38-38-38-38-38-|
--------------------------------------------------|
--49--L--L--L-------------------------------------|
--------36----------36----------36----------36----|
--------------------------------------------------|


   S  S  S  S  S  S  S  S  S  S  S  S  S  S  S  S  
--------------------------------------------------|
--38-38-38-38-38-38-38-38-38-38-38-38-38-38-38-38-|
--------------------------------------------------|
--------------------------------------------------|
--------36----------36----------36----------36----|
--------------------------------------------------|


   Verso Riff 3                                              
   S            S  S  S  S  S  S  S  S  S  S  S  S  S  S  S  
------------------------------------------------------------|
--38-----------38-38-38-38-38-38-38-38-38-38-38-38-38-38-38-|
------------------------------------------------------------|
--49------------L--L--L-------------------------------------|
------------------36----------36----------36----------36----|
------------------------------------------------------------|


   S  S  S  S  S  S  S  S  S  S  S  S  S  S  S  S  
--------------------------------------------------|
--38-38-38-38-38-38-38-38-38-38-38-38-38-38-38-38-|
--------------------------------------------------|
--------------------------------------------------|
--------36----------36----------36----------36----|
--------------------------------------------------|


   S  S  S  S  S  S  S  S  S  S  S  S  S  S  S  S  
--------------------------------------------------|
--38-38-38-38-38-38-38-38-38-38-38-38-38-38-38-38-|
--------------------------------------------------|
--49--L--L--L-------------------------------------|
--------36----------36----------36----------36----|
--------------------------------------------------|


   S  S  S  S  S  S  S  S  S  S  S  S  S  S  S  S  
--------------------------------------------------|
--38-38-38-38-38-38-38-38-38-38-38-38-38-38-38-38-|
--------------------------------------------------|
--------------------------------------------------|
--------36----------36----------36----------36----|
--------------------------------------------------|


   S  S  S  S  S  S  S  S  S  S  S  S  S  S  S  S  
--------------------------------------------------|
--38-38-38-38-38-38-38-38-38-38-38-38-38-38-38-38-|
--------------------------------------------------|
--49--L--L--L-------------------------------------|
--------36----------36----------36----------36----|
--------------------------------------------------|


   S  S  S  S  S  S  S  S  S  S  S  S  S  S  S  S  
--------------------------------------------------|
--38-38-38-38-38-38-38-38-38-38-38-38-38-38-38-38-|
--------------------------------------------------|
--------------------------------------------57--L-|
--------36----------36----------36----------36----|
--------------------------------------------------|


   S  S  S  S  S  S  S  S  S  S  S  S  S  S  S  S  
--------------------------------------------------|
--38-38-38-38-38-38-38-38-38-38-38-38-38-38-38-38-|
--------------------------------------------------|
--49--L--L--L-------------------------------------|
--36----36----------36----------36----------36----|
--------------------------------------------------|


   S  S  S  S  S  S  S  S  S  S  S  S  S  S  S  S  
--------------------------------------------------|
--38-38-38-38-38-38-38-38-38-38-38-38-38-38-38-38-|
--------------------------------------------------|
--------------------------------------------------|
--------36----------36----------36----------36----|
--------------------------------------------------|


   S  S  S  S  S  S  S  S  S  S  S  S  S  S  S  S  
--------------------------------------------------|
--38-38-38-38-38-38-38-38-38-38-38-38-38-38-38-38-|
--------------------------------------------------|
--49--L--L--L-------------------------------------|
--------36----------36----------36----------36----|
--------------------------------------------------|


   S  S  S  S  S  S  S  S  S  S  S  S  S  S  S  S  
--------------------------------------------------|
--38-38-38-38-38-38-38-38-38-38-38-38-38-38-38-38-|
--------------------------------------------------|
--------------------------------------------------|
--------36----------36----------36----------36----|
--------------------------------------------------|


   S  S  S  S  S  S  S  S  S  S  S  S  S  S  S  S  
--------------------------------------------------|
--38-38-38-38-38-38-38-38-38-38-38-38-38-38-38-38-|
--------------------------------------------------|
--49--L--L--L-------------------------------------|
--------36----------36----------36----------36----|
--------------------------------------------------|


   S  S  S  S  S  S  S  S  S  S  S  S  S  S  S  S  
--------------------------------------------------|
--38-38-38-38-38-38-38-38-38-38-38-38-38-38-38-38-|
--------------------------------------------------|
--------------------------------------------------|
--------36----------36----------36----------36----|
--------------------------------------------------|


   S  S  S  S  S  S  S  S  S  S  S  S  S  S  S  S  
--------------------------------------------------|
--38-38-38-38-38-38-38-38-38-38-38-38-38-38-38-38-|
--------------------------------------------------|
--49--L--L--L-------------------------------------|
--------36----------36----------36----------36----|
--------------------------------------------------|


   S  S  S  S  S  S  S  S  S  S  S  S  S  S  S  S  
--------------------------------------------------|
--38-38-38-38-38-38-38-38-38-38-38-38-38-38-38-38-|
--------------------------------------------------|
--------------------------------------------------|
--------36----------36----------36----------36----|
--------------------------------------------------|


   Outro                                              
   S     S  S  S  S  S  S  S  S  S  S  S  S  S  S  S  
-----------------------------------------------------|
--38----38-38-38-38-38-38-38-38-38-38-38-38-38-38-38-|
-----------------------------------------------------|
--49-----L--L--L-------------------------------------|
-----------36----------36----------36----------36----|
-----------------------------------------------------|


   S  S E   Q     Q     Q        Q     H.            
-----------------------------|--------46------------|
--38-38----------------------|----------------------|
-----------------------------|----------------------|
-----------49----57----49----|--57----49------------|
-----------36----36----36----|--36----36------------|
-----------------------------|----------------------|


       |--3--|  |--3--|  |--3--|  |--3--|  |--3--|  |--3--|  |--3--|  
   E   S  S  S  S  S  S  S  S  S  S  S  S  S  S  S  S  S  S  S  S  S  
---L--42-42-42-42-46-46-46-46-46-46-46-46-46-46-46-46-46-46-46-46-46-|
------38-38-38-38-------------------------------------38-38-38-------|
------------------50-50-48-48-47-47-45-45-43-43-41-41----------------|
---L--------------------------------------------55-55-55-55-55-55-55-|
---L-----------------------------------------------------------36-36-|
---------------------------------------------------------------------|


   S  S  E   E   E   Q     Q        Q     Q     H          
--46-46-46--46--46--------------|--------------46--------||
--46-46-46--46--46--------------|------------------------||
--------------------------------|------------------------||
--55-55-55--55--55--------------|--------------49--------||
--36-36-36--36--36--36----36----|--36----36----36--------||
--------------------------------|------------------------||            
Submit corrections


        Children Of The Damned lessons Hard to play? Try these video lessons and learn fast Children Of The Damned lessons
        
↑ Back to top | Tablatures and chords for acoustic guitar and electric guitar, ukulele, drums are parodies/interpretations of the original songs. You may use it for private study, scholarship, research or language learning purposes only