» » »

I Prevail - My Heart I Surrender Tabs

Artists:  A B C D E F G H I J K L M N O P Q R S T U V W X Y Z # 

My Heart I Surrender Tabs

(ver. 2) Click to play this song!
I Prevail
 Rating:
4.3/5 (6 votes)

 My Heart I Surrender  lessons Tabs too difficult? Try these video lessons and learn fast
 
                Intro:
C#m7 C#m7 E5 Bsus4

[Verse 1]
                     C#m7
I'm a ghost in your eyes,
     E5            Bsus4        C#m7
A shadow you can't seem to recognize.
     E5             Bsus4        C#m7
I have a thought of you for every star in the sky,
      E5             Bsus4             C#m7
But I'm scared, I'll never cross your mind.
      E5          Bsus4 (one strum)
Yeah, I'm scared.

[Chorus]
C#m7
   Will our stars ever align?
Asus2
   Will two hearts beat in time?
E5
   These words you should always remember, 
Bsus4
   To you, my heart I surrender.
C#m7
   Chasing love that can never be mine.
Asus2
   Maybe one day you'll realize,
E5
   These words you should always remember, 
Bsus4
   To you, my heart I surrender.


First solo x2

D|----------------------------------------------|---------------------------------------------|
A|----------------------------------------------|---------------------------------------------|
F|--------9--11/13\11--9--------9--11/13\11--9--|--------9--11/13\11--9-----8----8--8\9--9--9-|
C|--9--9---------------------9------------------|--9--9---------------------9-----------------|
G|----------------------------------------------|---------------------------------------------|
D|----------------------------------------------|---------------------------------------------|

[Verse 2] (same as before)
And I can't count the times,
I stayed awake pretending you were mine.
Now I'm left here with this emptiness inside, 
Why can't I make you mine?

[Chorus] (again)
Will our stars ever align?
Will two hearts beat in time?
These words you should always remember, 
To you, my heart I surrender.
Chasing love that can never be mine.
Maybe one day you'll realize,
These words you should always remember, 
To you, my heart I surrender.

Second solo 
D|---------------------------------------------|---------------------------------------------|
A|-12-12-12------------------------------------|-14-14-14------------------------------------|
F|----------13-13-13-11-11-11-9-9-9-9/11-11-11-|----------13-13-13-11-11-11-9-9-9-9/11-11-11-|
C|---------------------------------------------|---------------------------------------------|
G|---------------------------------------------|---------------------------------------------|
D|---------------------------------------------|---------------------------------------------|


D|---------------------------------------------|---------------------------------------------|
A|-12-12-12------------------------------------|---------------------------------------------|
F|----------13-13-13-11-11-11-9-9-9-9/11-11-11-|-9-9-9-11-11-11-8-8-9-9-9-11-11-11-8-8-------|
C|---------------------------------------------|---------------------------------------------|
G|---------------------------------------------|---------------------------------------------|
D|---------------------------------------------|---------------------------------------------|

[Outro] (chorus again)
Will our stars ever align? (ever align)
Will two hearts, beat in time?
These words you should always remember, 
To you, my heart I surrender.
Chasing love that can never be mine (never be mine).
Maybe one day you'll realize,
These words you should always remember, 
To you, my heart I surrender.            
Submit corrections


        My Heart I Surrender  lessons Hard to play? Try these video lessons and learn fast My Heart I Surrender  lessons
        
↑ Back to top | Tablatures and chords for acoustic guitar and electric guitar, ukulele, drums are parodies/interpretations of the original songs. You may use it for private study, scholarship, research or language learning purposes only