» » »

I Prevail - My Heart I Surrender Tabs

Artists:  A B C D E F G H I J K L M N O P Q R S T U V W X Y Z # 

My Heart I Surrender Tabs

(ver. 1) Click to play this song!
I Prevail
 Rating:
2.1/5 (29 votes)

 My Heart I Surrender  lessons Tabs too difficult? Try these video lessons and learn fast
 
                (Intro)
F#m A E  x2

(Verse) 

      E              F#m
I'm a ghost in your eyes.
   A                 E          F#m
A shadow you can't seem to recognize.
   A                E               F#m
I have a thought of you for every, star in the sky
    A                  E                F#m
But I'm scared, I'll never cross your mind.
       A     E
Yeah, I'm scared.

(Chorus)
F#m
Will our stars ever align?
D
Will two hearts, beat in time?
A
These words you should always remember,
E
To you, my heart I surrender.
F#m
Chasing love that can never be mine.
D
Maybe one day you'll realize.
A
These words you should always remember, 
E
To you, my heart I surrender.

(1st Instrumental)

e|-------------------------------------------------------------|
B|-------------------------------------------------------------|
G|-----2-4-6-4-2-----2-4-6-4-2-------2-4-6-4-2-1-1-1h2-1h2-----| x2
D|-------------------------------------------------------------|
A|-0-0------------0------------0-0-----------------------------|
E|-------------------------------------------------------------|


(Verse 2)
       E             F#m
And I can't count the times.
    A                 E               F#m
I stayed awake pretending you were mine.
          A                    E        F#m  
Now I'm left here with this emptiness 
A
inside,
E                     F#m  A E
Why can't I make you mine?

(Chorus)
F#m
Will our stars ever align?
D
Will two hearts, beat in time?
A
These words you should always remember,
E
To you, my heart I surrender.
F#m
Chasing love that can never be mine.
D
Maybe one day you'll realize.
A
These words you should always remember, 
E
To you, my heart I surrender.

(2nd Instrumental)

e|-/-----------------------------------2-2-2-------------------------------------|
B|-|---5-5-5-2-2-2---------------------------2-2-2-------------------------------|
G|-|---------------4-4-4-2-2-2-2h4-4-4-------------4-4-4-2-2-2-2h4-4-4-----------|
D|-|-----------------------------------------------------------------------------|
A|-|-----------------------------------------------------------------------------|
E|-\-----------------------------------------------------------------------------|

e|----------------------------------------------\
B|----5-5-5-2-2-2-------------------------------|
G|----------------4-4-4-2-2-2-2h4-4-4--2-4-4-1--| x2   
D|----------------------------------------------|
A|----------------------------------------------|
E|----------------------------------------------/

Second time play:
e|----------|
B|----------|
G|-2-4-4-1--|  
D|----------|
A|----------|
E|----------|
            twice

(Chorus)
F#m
Will our stars ever align?
D
Will two hearts, beat in time?
A
These words you should always remember,
E
To you, my heart I surrender.
F#m
Chasing love that can never be mine.
D
Maybe one day you'll realize.
A
These words you should always remember, 
E
To you, my heart I surrender.
            
Submit corrections


        My Heart I Surrender  lessons Hard to play? Try these video lessons and learn fast My Heart I Surrender  lessons
        
↑ Back to top | Tablatures and chords for acoustic guitar and electric guitar, ukulele, drums are parodies/interpretations of the original songs. You may use it for private study, scholarship, research or language learning purposes only