» » »

Into It Over It - Midnight Carroll Street Tabs

Artists:  A B C D E F G H I J K L M N O P Q R S T U V W X Y Z # 

Midnight Carroll Street Tabs

(ver. 2) Click to play this song!
Into It Over It
 Rating:
4/5 (4 votes)

 Midnight Carroll Street lessons Tabs too difficult? Try these video lessons and learn fast
 
                (Intro)
-------------------------------------------------------------------------------
                   Midnight: Carroll Street - Into It. Over It. (intro/verse)
-------------------------------------------------------------------------------

Tuning: Standard (EADGBe) with CAPO ON 1

Capo on first fret, all fret numbers treat capo as 0.

Great song, shame the other tab sucks. Intro/verse for now, working on the rest!

I know it sounds like there's more than one guitar part, but I can't pick them out, and 
I think this works out okay.

First attempt at a tab, be gentle!

-f|---------------------------------------------|
-C|---------------------------------------------|
G#|---------------------------------------------|
D#|-1-1-1-1-1-1-1-2-2-2-2-2-2-2-4-4-4-4-4-4-4-4-|
A#|-2-2-2-2-2-2-2-2-2-4-2-2-2-2-2-2-2-2-2-2-2-2-|
-F|-4-4-4-4-2-2-2-0-0-0-0-0-0-0-0-0-0-0-0-0-0-0-|

-f|---------------------------------------------|
-C|---------------------------------------------|
G#|---------------------------------------------|
D#|-1-1-1-1-1-1-1-2-2-2-2-2-2-2-6-6-6-4-4-4-4---|
A#|-2-2-2-2-2-2-2-2-2-4-2-2-2-2-7-7-7-7-7-7-7-7-|
-F|-0-0-0-0-0-0-0-0-0-0-0-0-0-0---------------8-|


************************************
            
Submit corrections


        Midnight Carroll Street lessons Hard to play? Try these video lessons and learn fast Midnight Carroll Street lessons
        
↑ Back to top | Tablatures and chords for acoustic guitar and electric guitar, ukulele, drums are parodies/interpretations of the original songs. You may use it for private study, scholarship, research or language learning purposes only