» » »

Into It Over It - Midnight Carroll Street Tabs

Artists:  A B C D E F G H I J K L M N O P Q R S T U V W X Y Z # 

Midnight Carroll Street Tabs

(ver. 3) Click to play this song!
Into It Over It
 Rating:
2.8/5 (24 votes)

 Midnight Carroll Street lessons Tabs too difficult? Try these video lessons and learn fast
 
                Tuning: FACFCE

Intro / Verse / Bridge
E|--------------------------------------------------|
C|--------------------------------------------------|
F|----------------------------------2-2-2-2-2-2-2-2-|
C|-4-4-4-4--5-5-5---4-4-2-0-0-0-0-0-0-0-0-0-0-0-0-0-|
A|-3-3-3-3--3-3-3---3-3-3-3-3-3-3-3-3-3-3-3-3-3-3-3-|
F|-4-4-4-4--2-2-2---0-0-0-0-0-0-0-0-0-0-0-0-0-0-0-0-|

E|------------------------------------------------------|
C|------------------------------------------------------|
F|----------------------------------0-0-0-0--0--0--0--0-|
C|-4-4-4-4--5-5-5--4-4-2-0-0-0-0-0--9-9-9-9--0--0--0--0-|
A|-3-3-3-3--3-3-3--3-3-3-3-3-3-3-3--8-8-8-8-10-10-10-10-|
F|-4-4-4-4--2-2-2--0-0-0-0-0-0-0-0--0-0-0-0--0--0--0--0-|
            
Submit corrections


        Midnight Carroll Street lessons Hard to play? Try these video lessons and learn fast Midnight Carroll Street lessons
        
↑ Back to top | Tablatures and chords for acoustic guitar and electric guitar, ukulele, drums are parodies/interpretations of the original songs. You may use it for private study, scholarship, research or language learning purposes only