Home » I » Interpol »

Interpol - Slow Hands Bass

Artists:  A B C D E F G H I J K L M N O P Q R S T U V W X Y Z # 

Slow Hands Bass

(ver. 1) Click to play this song!
Interpol
 Rating:
4/5 (4 votes)
                ----------------------------------------------------------------------------
			     SLOW HANDS - 
----------------------------------------------------------------------------


I'm actually a guitarist but my friends and I are performing this song for the school
talent show so i decided to tab it out for my bassist who was to lazy to do it. It
sounds pretty good to me.

Standard Tuning


INTRO (Bass comes in after guitar 1, guitar 2 and drums)

G|---------------------------------------|
D|---------------------------------------|
A|-----------------------------5---------|
E|-3-3-3-3-3-3-3-3-3-3-3-3-3--------5----|

VERSE 

G|--------------------------------------------------------------------|\
D|--------------------------------------------------------------------| \
A|--------------------------------------------------------------------| /2x
E|-3-3-3-3-3-3-3-3-3-3-3-3-3-3-3-3--5-5-5-5-5-5-5-5--0-0-0-0-0-0-0-0--|/

G|--------------------------------------------------------------------|
D|------------------------------------------------5-------------------|
A|-2-2-2-2-------2-2-2-2—-5-5-5-5—-7-7-7-5--7-5-7----7-7-7--5-7-5-7---|
E|--------3-3-3-3-----------------------------------------------------| 

G|--------------------------------------------------------------------|
D|----------------------------------------------------------9s14------|
A|-2-2-2-2-------2-2-2-2—-5-5-5-5—-7-7-7-5--7-5-7-5--7-7-7------------|
E|--------3-3-3-3-----------------------------------------------------|

G|--------------------------------------------------------------------|
D|-21-21-21-21--19-19-19-19--17-17-17-17--14-14-12--------------------|
A|------------------------------------------------14-12-12-12-12-12-12|
E|--------------------------------------------------------------------|

G|--------------------------------------------------------------------|
D|---------14-14-14--12-12-12-----------------------------------------|
A|-12-12-12--------------------------------------7-7-7-7--10-10-10-10-|
E|---------------------------7-7-7-7--10-10-10-10---------------------|

G|--------------------------------------------------------------------|
D|--------------------------------------------------------------------|
A|-----------------5-5-5-5-5-5-5-5------------------------------------|
E|-5-5-5-5-5-5-5-5----------------------------------------------------|

CHORUS 1

G|--------------------------------------------------------------------|\
D|--------------------------------------------------------------------| \
A|-----------------------------------7-7-7-7-7-7-7-7-7--5-5-5-5-5-5-5-| /2x
E|-7-7-7-7-7-7-7--6--5-5-5-5-5-5-5-5----------------------------------|/

G|----------------|
D|----------------|
A|------5---------|
E|--3--------5----|

REPEAT VERSE




CHORUS 2

G|--------------------------------------------------------------------|\
D|--------------------------------------------------------------------| \
A|-----------------------------------7-7-7-7-7-7-7-7-7--5-5-5-5-5-5-5-| /2x
E|-7-7-7-7-7-7-7--6--5-5-5-5-5-5-5-5----------------------------------|/


G|--------------------------------------------------------------------|
D|--------------------------------------------------------------------|
A|-----------------------------------7-7-7-7-7-7-7-7--9-9-9-9-9-9-9-9-|
E|-7-7-7-7-7-7-7--6--5-5-5-5-5-5-5-5----------------------------------|

INTERLUDE (no pause for bass in between 2nd chorus and interlude)

G|--------------------------------------------------------------------|
D|-9-9-9--7--9-9-9--7--9-9-9--7--9-9-9--------------------------------|
A|--------------------------------------------------------------------|
E|--------------------------------------------------------------------|

G|--------------------------------------------------------------------|\
D|-9-9-9-9--7-7-7-7--5-5-5-5-5-5-5--6-7-7-7-7-7-----------------5-5-5-| \
A|---------------------------------------------5-5--6--7-7-7-7-7------| /2x
E|--------------------------------------------------------------------|/

G|-----------------------------------------------------------------12---|
D|-9-9-9-9-7-7-7-7-5-5-5-5-5-5-5-6-7-7-7-7-7-9-9-12-12--14-14-14-14—-14-|
A|----------------------------------------------------------------------|
E|----------------------------------------------------------------------|

REPEAT CHORUS 2 ONCE THEN

G|--------------------------------------------------------------------|
D|-9--9--9---8---7--7--------------------------7----------------------|
A|---------------------5---6--7--7--7---9--9--------------------------|
E|--------------------------------------------------------------------|


G|---------------------------------------------------------------------|
D|-9--9--9---8---7--7---12---14--14--14--16-16-16--12--16-16-16--12--9-|
A|---------------------------------------------------------------------|
E|---------------------------------------------------------------------|
            
Submit corrections

↑ Back to top | Tablatures and chords for acoustic guitar and electric guitar, ukulele, drums are parodies/interpretations of the original songs. You may use it for private study, scholarship, research or language learning purposes only