Home » I » Interpol »

Interpol - Pda Bass

Artists:  A B C D E F G H I J K L M N O P Q R S T U V W X Y Z # 

Pda Bass

(ver. 1) Click to play this song!
Interpol
 Rating:
4/5 (4 votes)
                -------------------------------------------------------------------------------
			     PDA - Interpol
-------------------------------------------------------------------------------



Tuning: Normal (E,A,D,G)


Intro ~~~ Drumming only


             verse  x2

G|---------------------------------------------------------------------6----|
D|--------------------------------------------------------------------------|
A|-22222222222/5550--222222222224455---------555555550----------5555554---4-|
E|----------------------------------5555555----------5555555----------------|


          lead up to chorus

G|-----------------------------------------------------------------6----|
D|-----------------4-00000000000044444555-------------------------------|
A|-22-022-022-0222-------------------------555555555---------555554-450-|
E|---------------------------------------(5)---------555/777------------|

G|-----------------------------------------------------------------6-------|
D|-----------------4-000000040302230444555---------------------------------|
A|-22-022-022-0222-------------------------555555555---------555554-450----|
E|---------------------------------------------------555/777---------------|


chorus x2               (twelves)      (Elevens)
G|--------------------------------------------------------------|
D|-------------------12121212121212-11-11111111-x-777-----------|
A|-7777777977999777/--------------------------------------------|
E|--------------------------------------------------------------|


chorus continued
                (elevens)(twelves)
G|--------------------------------------------------------------------|
D|--------------------------------11-1212-11-1212-11-12-111111-7770---|
A|-7777799999/1111111111-h12-1212-------------------------------------|
E|--------------------------------------------------------------------|

G|-----9---9--9-9-99-----7--7--7-7-77----|
D|---------------------------------------|
A|-7777--77-77-7-7---5555-55-55-5-5------|
E|---------------------------------------|

G|-----9---9--9-9-99-----7--7--7-7---------------|
D|-----------------------------------------------|
A|-7777--77-77-7-7---5555-55-55-5-5/-1212--------|
E|-----------------------------------------------|


stop

guitaring comes back in then rest of instruments kick in.


repeat all that was last played,

          Now the outro...

       (sixteens)      (fourteens)             (thirteens)
G|--1616161616161616-1414141414141414-13131313-131313-131313-131313--|
D|-------------------------------------------------------------------|
A|-------------------------------------------------------------------|
E|-------------------------------------------------------------------|

G|-1313131314141414-16161616161616161616-161616-161616-161616-------|
D|------------------------------------------------------------------|
A|------------------------------------------------------------------|
E|------------------------------------------------------------------|

G|-16161616161616-161616161616-1414141414141414/131313/-|
D|------------------------------------------------------|
A|------------------------------------------------------|
E|------------------------------------------------------|

G|-8889999-888999999988889998888-888999988899999998888999------|
D|-------------------------------------------------------67777-|
A|-------------------------------------------------------------|
E|-------------------------------------------------------------|


do this 2 times (below)

G|-------------------------------------------------------|
D|-------------------------------------------------------|
A|-------------------------------------------------------|
E|-888888888888888888888888666666665555555555555555------|

then sprinkle this around

G|-------------------88899998889999\---------|
D|-------------------------------------------|
A|-------------------------------------------|
E|-88888888866666666-------------------------|


end on

G|-------------------------------------------------------|
D|-------------------------------------------------------|
A|-------------------------------------------------------|
E|-5-----------------------------------------------------|


| /  slide up
| \  slide down
| h  hammer-on
| p  pull-off
| ~  vibrato
| +  harmonic
| x  Mute note
============================================================================
            
Submit corrections

↑ Back to top | Tablatures and chords for acoustic guitar and electric guitar, ukulele, drums are parodies/interpretations of the original songs. You may use it for private study, scholarship, research or language learning purposes only