Home » I » Interpol »

Interpol - Narc Bass

Artists:  A B C D E F G H I J K L M N O P Q R S T U V W X Y Z # 

Narc Bass

(ver. 2) Click to play this song!
Interpol
 Rating:
4/5 (4 votes)
                
                                          Narc                                            


                                                                                  Interpol
Bass



      Q.     E   E   Q     E     Q.     E   E   E   E   E        Q.     S S E  E  E  E   
G||----------9--11--12----12--|---------9--11--12--14--12---||--------------------------|
D||*--9-----------------------|--9-------------------------*||*---------5-5----5-----5--|
A||*--------------------------|----------------------------*||*-------------------------|
E||---------------------------|-----------------------------||---3----------3-----3-----|


  E  E  E  E  E  S S E  S S    Q    E  S S E  S S E  S S    E  E  E  E  E  E  E  E   3x
----------------------------|----------------------------|-----5-----5-----4-----4---||
-----4-----4-----4-4----4-4-|----------------------------|--------------------------*||
----------------------------|--5-------5-5-5--5-5-5--5-5-|--3-----3-----2-----2-----*||
--2-----2-----2------2------|----------------------------|---------------------------||


  Q.     S S E  E  E  E     E  E  E  E  E  S S E  S S    Q    E  S S E  E  E  E   
-------------------------|----------------------------|--------------------------|
---------5-5----5-----5--|-----4-----4-----4-4----4-4-|--------------------------|
-------------------------|----------------------------|--5-------5-5-5--4-----3--|
--3----------3-----3-----|--2-----2-----2------2------|--------------------------|


  Q    E  E  E  E  E  E       Q    E  E  E  E  E  E     Q    E  E  E  E  E  E     
-------------------------||--------------------------|--------------------------||
-------------------------||*-------------------------|-------------------------*||
--2-------0--2--2--2--2--||*--5-------5--5--4-----3--|--2-------0--2--2-----2--*||
-------------------------||--------------------------|--------------------------||


  Q    E  E  E  E  E  E     Q    E  E  E  E  E  E     E  E  E  E  E  E  E  E   
-------------------------|-------------------------|--------------------------|
-------------------------|-------------------------|--------------------------|
--5-------5--5--4-----3--|--2-------0--2--2--2--2--|--5--5--5--5--4--4--4--4--|
-------------------------|-------------------------|--------------------------|


  E  E  E  E    E   E   E   E       E  E  E  E  E  E  E  E     E  E  E  E  E  E  E  E   
-------------------------------||---------------------------|--------------------------|
-------------------------------||*--------------------------|--------------------------|
--2--2--2--2S--12--12--12--12--||*--------------------------|--------------------------|
-------------------------------||---3--3--3--3--3--3--3--3--|--5--5--5--5--5--5--5--5--|


  E  E  E  E  E  E  E  E     E  E  E  E    E   E   E   E       E  E  E  E  E  E  E  E   
--------------------------|--------------------------------||--------------------------|
--------------------------|-------------------------------*||--------5-----------5-----|
--------------------------|-------------------------------*||--------------------------|
--0--0--0--0--0--0--0--0--|--0--0--0--0S--10--10--10--10---||--3--3-----3--3--3-----3--|


  E  E  E  E  E  E  E  E     E  E  E  E  E  E  E  E     E  E  E  E    E   E   E   E   
--------------------------|--------------------------|-------------------------------|
--------7-----------7-----|--------9-----------9-----|--------9--------------12------|
--------------------------|--------------------------|-------------------------------|
--5--5-----5--5--5-----5--|--7--7-----7--7--7-----7--|--7--7-----7S--10--10------10--|


  E  E  E  E  E  E  E  E     E  E  E  E  E  E  E  E     E  E  E  E  E  E  E  E   
--------------------------|--------------------------|--------------------------|
--------5--5--------5--5--|--------7--7--------7--7--|--------9--9--------9--9--|
--------------------------|--------------------------|--------------------------|
--3--3--------3--3--------|--5--5--------5--5--------|--7--7--------7--7--------|


  E  E  E   E   E   E   E   E     Q     H.              H        E   E   E   E   
-------------------------------|---------------------|--------------------------|
--9--9--9----------12------12--|---------------------|------------------12------|
---------------12------12------|---------------------|--------------12----------|
-----------10------------------|--3\-----------------|----------------------10--|


    Q.     S S E  E  E  E     E  E  E  E  E  S S E  S S    Q    E  S S E  S S E  S S  
|--------------------------|----------------------------|----------------------------|
|*---------5-5----5-----5--|-----4-----4-----4-4----4-4-|----------------------------|
|*-------------------------|----------------------------|--5-------5-5-5--5-5-5--5-5-|
|---3----------3-----3-----|--2-----2-----2------2------|----------------------------|


  E  E  E  E  E  E  E  E   3x  Q.     S S E  E  E  E     E  E  E  E  E  S S E  S S  
-----5-----5-----4-----4---||-------------------------|----------------------------|
--------------------------*||---------5-5----5-----5--|-----4-----4-----4-4----4-4-|
--3-----3-----2-----2-----*||-------------------------|----------------------------|
---------------------------||--3----------3-----3-----|--2-----2-----2------2------|


  Q    E  S S E  E  E  E     Q    E  E  E  E  E  E     Q    E  E  E  E  E  E   
--------------------------|-------------------------|-------------------------|
--------------------------|-------------------------|-------------------------|
--5-------5-5-5--4-----3--|--2-------0--2--2--2--2--|--5-------5--5--4-----3--|
--------------------------|-------------------------|-------------------------|


  Q    E  E  E  E  E  E     E  E  E  E  E  E  E  E     E  E  E  E    E   E   E   E   
-------------------------|--------------------------|-------------------------------|
-------------------------|--------------------------|-------------------------------|
--2-------0--2--2--2--2--|--5--5--5--5--4--4--4--4--|--2--2--2--2S--12--12--12--12--|
-------------------------|--------------------------|-------------------------------|


    E  E  E  E  E  E  E  E     E  E  E  E  E  E  E  E     E  E  E  E  E  E  E  E   
|---------------------------|--------------------------|--------------------------|
|*--------------------------|--------------------------|--------------------------|
|*--------------------------|--------------------------|--------------------------|
|---3--3--3--3--3--3--3--3--|--5--5--5--5--5--5--5--5--|--0--0--0--0--0--0--0--0--|


  E  E  E  E    E   E   E   E       E  E  E  E  E  E  E  E     E  E  E  E  E  E  E  E   
--------------------------------||--------------------------|--------------------------|
-------------------------------*||--------5-----------5-----|--------7-----------7-----|
-------------------------------*||--------------------------|--------------------------|
--0--0--0--0S--10--10--10--10---||--3--3-----3--3--3-----3--|--5--5-----5--5--5-----5--|


  E  E  E  E  E  E  E  E     E  E  E  E    E   E   E   E     E  E  E  E  E  E  E  E   
--------------------------|-------------------------------|--------------------------|
--------9-----------9-----|--------9--------------12------|--------5--5--------5--5--|
--------------------------|-------------------------------|--------------------------|
--7--7-----7--7--7-----7--|--7--7-----7S--10--10------10--|--3--3--------3--3--------|


  E  E  E  E  E  E  E  E     E  E  E  E  E  E  E  E     E  E  E   E   E   E   E   E   
--------------------------|--------------------------|-------------------------------|
--------7--7--------7--7--|--------9--9--------9--9--|--9--9--9----------12------12--|
--------------------------|--------------------------|---------------12------12------|
--5--5--------5--5--------|--7--7--------7--7--------|-----------10------------------|


  Q     H.              H.           E  S S      Q    E  E   E   E  E   E   
---------------------|----------------------||-----------------------------|
---------------------|------------------9-9-||*-------------10--10-----10--|
---------------------|----------------------||*--7-------7-----------------|
--5\-----------------|----------------------||-----------------------------|


  Q    E  E  E  E  E  E   4x  E  E  E  E  E  E  E  E      E   E   E   E   E   E   E   E   
--------------------------||--------------------------|----------------------------------|
-------------7--7--7-----*||--------------------------|--10--10--10--10--10--10--10--10--|
--7-------7-----------5--*||--7--7--7--7--7--7--7--7--|----------------------------------|
--------------------------||--------------------------|----------------------------------|


  E  E  E  E  E  E  E  E     E  E  E  E  E  E  E  E     E  E  E  E  E  E  E  E   
--------------------------|--------------------------|--------------------------|
--7--7--7--7--7--7--------|--------------------------|--------------------------|
--------------------5--5--|--7--7--7--7--7--6--5--4--|--3--3--3--3--3--3--3--3--|
--------------------------|--------------------------|--------------------------|


  E  E  E  E  E  E  E  E     E  E  E  E  E  E  E  E     E  E  E  E  E  E  E  E   
--------------------------|--------------------------|--------------------------|
--------------------------|--------------------------|--------------------------|
--------------------------|--5--5--5--5--5--5--5--5--|--7--7--7--7--7--7--7-----|
--5--5--5--5--5--5--5--0--|--------------------------|-----------------------0--|


  E  E  E  E  E  E  E  E     E  E  E  E  E  E  E  E     E  E  E  E  E  E  E  E   
--------------------------|--------------------------|--------------------------|
--------------------------|--------------------------|--------------------------|
--------------------------|-----------------0--1--2--|--5--5--5--5--5--5--5--5--|
--7--7--7--7--7--7--7--7--|--7--7--7--7--7-----------|--------------------------|


  E  E  E  E    E   E   E   E       E  E  E  E  E  E  E  E     E  E  E  E  E  E  E  E   
-------------------------------||---------------------------|--------------------------|
-------------------------------||*--------------------------|--------------------------|
--7--7--7--7S--19--19--19--19--||*--------------------------|-----------------0--1--2--|
-------------------------------||---7--7--7--7--7--7--7--7--|--7--7--7--7--7-----------|


  E  E  E  E  E  E  E  E     E  E  E  E  E  E  E  E       E  E  E  E  E  E  E  E   
--------------------------|---------------------------||--------------------------|
--------------------------|--------------------------*||--------------------------|
--5--5--5--5--5--5--5--5--|--7--7--7--7--7--7--7-----*||--------------------------|
--------------------------|-----------------------0---||--7--7--7--7--7--7--7--7--|


  E  E  E  E  E  E  E  E     E  E  E  E  E  E  E  E     E  E  E  E  E  E  E  E   
--------------------------|--------7--7--------7--7--|--------9-----------9-----|
--------------------------|--------------------------|-----------------------7--|
-----------------0--1--2--|--5--5--------5--5--------|--7--7-----7--7--7--------|
--7--7--7--7--7-----------|--------------------------|--------------------------|


  W                  
-------------------||
--9----------------||
-------------------||
-------------------||




Duration Legend
---------------
W - whole
H - half
Q - quarter
E - 8th
S - 16th
T - 32nd
X - 64th
. - note dotted
|-n-|  - n-tuplets


Tablature Legend
----------------
L - tied note
x - dead note
g - grace note
(n) - ghost note
> - accentuded note
NH - natural harmonic
AH - artificial harmonic
TH - tapped harmonic
SH - semi harmonic
PH - pitch harmonic
h - hammer on
p - pull off
b - bend
br - bendRelease
pb - preBend
pbr - preBendRelease
brb - bendReleaseBend
\n/ - tremolo bar dip
\n - tremolo bar dive
-/n - tremolo bar Release up
/n\ - tremolo bar inverted dip
/n - tremolo bar return
-\n - tremolo bar Release down
S - shift slide
s - legato slide
/ -  slide into from below or out of upwards
\ -  slide into from above or out of downwards
~ - vibrato
W - wide vibrato
tr - trill
TP - tremolo picking
T - tapping
S - slap
P - pop
< - fade in
^ - brush up
v - brush down
            
Submit corrections

↑ Back to top | Tablatures and chords for acoustic guitar and electric guitar, ukulele, drums are parodies/interpretations of the original songs. You may use it for private study, scholarship, research or language learning purposes only