» » »

Interpol - Mascara Tabs

Artists:  A B C D E F G H I J K L M N O P Q R S T U V W X Y Z # 

Mascara Tabs

(ver. 1) Click to play this song!
Interpol
 Rating:
4/5 (4 votes)

 Mascara lessons Tabs too difficult? Try these video lessons and learn fast
 
                ~ let ring

you can figure out the strumming pattern, very easy.

guit 1 verse Paul:

  Dm       A    Am /Asus4   E
---1-------0-----0---0------0----------|
---3-------2-----1---3------0----------|
---2-------2-----2---2------1----------|
---0-------2-----2---2------2----------|
-----------0---------0------2----------|
----------------------------0----------|
"yes, i sure miss the holidays..."

guit 2 verse Daniel:

-2--3~~~~~~--3-2~~~~~---2-2-/5-5/7-7/2-2-3-3~--0-1-2~~~~~-----------|

guit 1 Paul: does silence, but you can keep strumming a
             Dm chord, im almost sure thats what the keyboard plays (1:29)

guit 2 Daniel (1:29):
---------------------------|
---------------------------|
---------------------------|
---8~~~~~~~-8~/12-/7-------|x2
---------------------------|
---------------------------|
"now we're starting up the rain again...."


back to verse


guit 1 outro Paul: (3:04)
Daniel does the kinda the same thing on the second time before changing.
--3---3--3--3---2---2---2---2---2---2---2---2---2---2---2---2------|
----3--3--3---3---2---2---2---2---0---0---0---0---2---2---2---2----|
"pitch......... black......... maybelline........"

guit 1 outro Paul:
pretty much the same but now  with some strumming.

--1---1--1---1---1---1---1---1---1---1---1---1---1---1---1---1-----|
--3---3--3---3---3---3---3---3---2---2---2---2---2---3---3---3-----|
--3---3--3---3---2---2---2---2---2---2---2---2---2---2---2---2-----|

guit 2 outro Daniel: i cant figure out what hes playing, it isnt very hard,
                     but u have to forgive me this is my first tab attempt.
                      and i ran out of patience right about now.

yes i sure miss the holidays
i was so young
tied up in so many ways
looking for a safety envelope house
i might make you handsome
i might give you pleads
handsomeness is getting awful at times (?)
you have the right game (?)
now we're starting up the rain again
starting up the rain again
starting to look the same again
isn't that a shame?
and it goes on
a fine mile while ____
you'll be there for me ____
you'll be there ____
when you go running away

i might make you handsome
i might give you pleads
to try the long way back
you can stay traveling with that black cast (?)
you can stay traveling with that blank cast (?)
____it's alright with me

pitch black maybelline
stay hidden, they'll remain unseen

save your ____
time breaks down
baby if you're smooth ____
time should slow down

********************one of interpol's greatest songs, simple is                          
  better.*************************
            
Submit corrections


        Mascara lessons Hard to play? Try these video lessons and learn fast Mascara lessons
        
↑ Back to top | Tablatures and chords for acoustic guitar and electric guitar, ukulele, drums are parodies/interpretations of the original songs. You may use it for private study, scholarship, research or language learning purposes only