Home » I » Interpol »

Interpol - Mammoth Tabs

Artists:  A B C D E F G H I J K L M N O P Q R S T U V W X Y Z # 

Mammoth Tabs

(ver. 1) Click to play this song!
Interpol
Intro

spare me the suspense...
-----------------------------|
-----------------------------|
-------5----5----5-----------|
-----------------------------|
-----7----7----7-------------|
-----------------------------|

chorus

there are seven ancient pawn shops...
-----------------------------|
-----------------------------|
-----7--7--7--7--7-----------|
----7--7--7--7--7------------|
-----------------------------|
-----------------------------|

and the seven aging dadies...
---------5--5--5-----------------|
-----------7--7--7---------------|
---------------------------------|
---------------------------------|
---------------------------------|
---------------------------------|

Outro (DANIEL)
----------------------------------------------------------------------|
----------------------------------------------------------------------|
---------7------7---------9----9----------6-----6---------------------|
---------------------7-7-----7--7---3--3-----3----3-------------------|
----5-5------5----5---------------------------------------------------|
----------------------------------------------------------------------|

(PAUL)
-----------------------------------------------------------------------------|
---7-7-7--7-7---7---8--7---7--7-7--7-7--7--5--7--5--7------------------------|
-----------------------------------------------------------------------------|
-----------------------------------------------------------------------------|
-----------------------------------------------------------------------------|
-----------------------------------------------------------------------------|

Chorus intro/end
-------------------------------------------------|
-------------------------------------------------|
---7/9/7---10/12/10-----9/6---7/9----------------|
-------------------------------------------------|
-------------------------------------------------|
-------------------------------------------------|
            
Submit corrections

↑ Back to top | Tablatures and chords for acoustic guitar and electric guitar, ukulele, drums are parodies/interpretations of the original songs. You may use it for private study, scholarship, research or language learning purposes only