Home » I » Interpol »

Interpol - Lights Tabs

Artists:  A B C D E F G H I J K L M N O P Q R S T U V W X Y Z # 

Lights Tabs

(ver. 2) Click to play this song!
Interpol
 Rating:
4.3/5 (6 votes)
                
here is the basic tab for interpol's new single "Lights"

Main riff
E--0--0-0--3--3-3--------------------------------------------|
A----------------3-333333333333--0-0-0--5-555555---7--77777--|
D------------------------------------------------------------|
G------------------------------------------------------------|
B------------------------------------------------------------|
e------------------------------------------------------------|

Listen to the song for strumming and timing and all that good stuff.

There is only one other riff in the song I believe and it goes as follows

Second riff (1:43)

E--0-------3------------------------3-------3-------------------|
A----------------3----0----------0---------------5-----5----7---|
D---------------------------------------------------------------|
G---------------------------------------------------------------|
B---------------------------------------------------------------|
e---------------------------------------------------------------|

There are other guitar parts pretty easy just jam it out but for the most part
this is what is played throughout the song and again listen to the song
for strumming and all the other stuff.
            
Submit corrections

↑ Back to top | Tablatures and chords for acoustic guitar and electric guitar, ukulele, drums are parodies/interpretations of the original songs. You may use it for private study, scholarship, research or language learning purposes only