» » »

Interpol - Lighthouse Tabs

Artists:  A B C D E F G H I J K L M N O P Q R S T U V W X Y Z # 

Lighthouse Tabs

(ver. 2) Click to play this song!
Interpol
 Rating:
4.2/5 (5 votes)

 Lighthouse lessons Tabs too difficult? Try these video lessons and learn fast
 
                


Heard it live thought this came close to it.

Guitar 1 
e--------------------------------------------------------------------|
B-----8----5--6----6----6--------------------------------------------|
G---7-----5------7----7----------------------------------------------|
D--------------------------------------------------------------------|
A--------------------------------------------------------------------|
E--------------------------------------------------------------------|

Guitar 2
e--------------------------------------------------------------------|
B--------------------------------------------------------------------|
G--------------------------------------------------------------------|
D---0-5----2--3----3---3---------------------------------------------|
A---------3------5---5-----------------------------------------------|
E--------------------------------------------------------------------|
            
Submit corrections


        Lighthouse lessons Hard to play? Try these video lessons and learn fast Lighthouse lessons
        
↑ Back to top | Tablatures and chords for acoustic guitar and electric guitar, ukulele, drums are parodies/interpretations of the original songs. You may use it for private study, scholarship, research or language learning purposes only