Home » I » Inme »

Inme - 7 Weeks Tabs

Artists:  A B C D E F G H I J K L M N O P Q R S T U V W X Y Z # 

7 Weeks Tabs

(ver. 3) Click to play this song!
Inme
Intro

e|------------------------------|------------------------|
B|------------------------------|--------------13b-------|
G|------------------------------|------------------------|
D|------------------------------|------------------------|
A|------------------------------|------------------------|
D|-0-10h12-0-0-0-10h12-10h12-15-|-0-10h12-0-0------------|

e|------------------------------|------------------------------|
B|------------------------------|------------------------------|
G|------------------------------|------------------------------|
D|------------------------------|------------------------------|
A|-0-10h12-0-0-0-10h12-10h12-15-|-0-10h12-0-0-0-10h12-17-17-15-|
D|-0-10h12-0-0-0-10h12-10h12-15-|-0-10h12-0-0-0-10h12-17-17-15-|

e|------------------------------|--------------------------------------|
B|------------------------------|--------------------------------------|
G|------------------------------|--------------------------------------|
D|------------------------------|-----8-10-8------------10-12-10-------|
A|-0-10h12-0-0-0-10h12-10h12-15-|---8--------8-------10----------10----|
D|-0-10h12-0-0-0-10h12-10h12-15-|-8------------8--10----------------10-|


Verse

e|------------------------------|------------------------------|
B|------------------------------|------------------------------|
G|------------------------------|------------------------------|
D|------------------------------|------------------------------|
A|------------------------------|------------------------------|
D|-0-10h12-0-0-0-10h12-10h12-15-|-0-10h12-0-0-0-10h12-17-17-15-|

e|------------------------------|--------------------------------------|
B|------------------------------|--------------------------------------|
G|------------------------------|--------------------------------------|
D|------------------------------|-----8-10-8------------10-12-10-------|
A|------------------------------|---8--------8-------10----------10----|
D|-0-10h12-0-0-0-10h12-10h12-15-|-8------------8--10----------------10-|

e|------------------------------|------------------------------|
B|------------------------------|------------------------------|
G|------------------------------|------------------------------|
D|------------------------------|------------------------------|
A|-0-10h12-0-0-0-10h12-10h12-15-|-0-10h12-0-0-0-10h12-17-17-15-|
D|-0-10h12-0-0-0-10h12-10h12-15-|-0-10h12-0-0-0-10h12-17-17-15-|

e|------------------------------|--------------------------------------|
B|------------------------------|--------------------------------------|
G|------------------------------|--------------------------------------|
D|------------------------------|-----8-10-8------------10-12-10-------|
A|-0-10h12-0-0-0-10h12-10h12-15-|---8--------8-------10----------10----|
D|-0-10h12-0-0-0-10h12-10h12-15-|-8------------8--10----------------10-|


Chorus

e|------------------------------|------------------------------|
B|------------------------------|------------------------------|
G|------------------------------|------------------------------|
D|-5-5-5-5--5-5-5--5-5-5--5-5-5-|-9-9-9-9--9-9-9--9-9-9--9-9-9-|
A|-5-5-5-5--5-5-5--5-5-5--5-5-5-|-9-9-9-9--9-9-9--9-9-9--9-9-9-|
D|-5-5-5-5--5-5-5--5-5-5--5-5-5-|-9-9-9-9--9-9-9--9-9-9--9-9-9-|

e|------------------------------|---------------------------------------|
B|------------------------------|---------------------------------------|
G|------------------------------|---------------------------------------|
D|-7-7-7-7--7-7-7--7-7-7--7-7-7-|-12-12-xxxx-11-11-xxxx-9-9-xxxx-7-xx-7-|
A|-7-7-7-7--7-7-7--7-7-7--7-7-7-|-12-12-xxxx-11-11-xxxx-9-9-xxxx-7-xx-7-|
D|-7-7-7-7--7-7-7--7-7-7--7-7-7-|-12-12-xxxx-11-11-xxxx-9-9-xxxx-7-xx-7-|

e|------------------------------|------------------------------|
B|------------------------------|------------------------------|
G|------------------------------|------------------------------|
D|-5-5-5-5--5-5-5--5-5-5--5-5-5-|-9-9-9-9--9-9-9--9-9-9--9-9-9-|
A|-5-5-5-5--5-5-5--5-5-5--5-5-5-|-9-9-9-9--9-9-9--9-9-9--9-9-9-|
D|-5-5-5-5--5-5-5--5-5-5--5-5-5-|-9-9-9-9--9-9-9--9-9-9--9-9-9-|

e|------------------------------|
B|------------------------------|
G|------------------------------|
D|-7-7-7-7--7-7-7--7-7-7--7-7-7-|
A|-7-7-7-7--7-7-7--7-7-7--7-7-7-|
D|-7-7-7-7--7-7-7--7-7-7--7-7-7-|

while a second guitar plays

e|------------------------------|------------------------------|
B|-------7------7------7--------|-------5------5------5--------|
G|---7------7------7------7---7-|---6------6------6------6---6-|
D|-5---5------5------5------5---|-4---4------4------4------4---|
A|------------------------------|------------------------------|
D|------------------------------|------------------------------|

e|------------------------------|---------------------------------------|
B|-------7------7------7--------|---------------------------------------|
G|---7------7------7------7---7-|---------------------------------------|
D|-5---5------5------5------5---|-12-12-xxxx-11-11-xxxx-9-9-xxxx-7-xx-7-|
A|------------------------------|-12-12-xxxx-11-11-xxxx-9-9-xxxx-7-xx-7-|
D|------------------------------|-12-12-xxxx-11-11-xxxx-9-9-xxxx-7-xx-7-|

e|------------------------------|------------------------------|
B|-------7------7------7--------|-------5------5------5--------|
G|---7------7------7------7---7-|---6------6------6------6---6-|
D|-5---5------5------5------5---|-4---4------4------4------4---|
A|------------------------------|------------------------------|
D|------------------------------|------------------------------|

e|------------------------------|
B|-------7------7------7--------|
G|---7------7------7------7---7-|
D|-5---5------5------5------5---|
A|------------------------------|
D|------------------------------|


Verse

e|-----------------------|
B|-----------------------|
G|-----------------------|
D|-----------------------|
A|-----------------------|
D|-0-10h12-0-0-PICKSLIDE-|

e|------------------------------|------------------------------|
B|------------------------------|------------------------------|
G|------------------------------|------------------------------|
D|------------------------------|------------------------------|
A|------------------------------|------------------------------|
D|-0-10h12-0-0-0-10h12-10h12-15-|-0-10h12-0-0-0-10h12-17-17-15-|

e|------------------------------|--------------------------------------|
B|------------------------------|--------------------------------------|
G|------------------------------|--------------------------------------|
D|------------------------------|-----8-10-8------------10-12-10-------|
A|------------------------------|---8--------8-------10----------10----|
D|-0-10h12-0-0-0-10h12-10h12-15-|-8------------8--10----------------10-|

e|------------------------------|------------------------------|
B|------------------------------|------------------------------|
G|------------------------------|------------------------------|
D|------------------------------|------------------------------|
A|-0-10h12-0-0-0-10h12-10h12-15-|-0-10h12-0-0-0-10h12-17-17-15-|
D|-0-10h12-0-0-0-10h12-10h12-15-|-0-10h12-0-0-0-10h12-17-17-15-|

e|------------------------------|--------------------------------------|
B|------------------------------|--------------------------------------|
G|------------------------------|--------------------------------------|
D|------------------------------|-----8-10-8------------10-12-10-------|
A|-0-10h12-0-0-0-10h12-10h12-15-|---8--------8-------10----------10----|
D|-0-10h12-0-0-0-10h12-10h12-15-|-8------------8--10----------------10-|


Chorus

e|------------------------------|------------------------------|
B|------------------------------|------------------------------|
G|------------------------------|------------------------------|
D|-5-5-5-5--5-5-5--5-5-5--5-5-5-|-9-9-9-9--9-9-9--9-9-9--9-9-9-|
A|-5-5-5-5--5-5-5--5-5-5--5-5-5-|-9-9-9-9--9-9-9--9-9-9--9-9-9-|
D|-5-5-5-5--5-5-5--5-5-5--5-5-5-|-9-9-9-9--9-9-9--9-9-9--9-9-9-|

e|------------------------------|---------------------------------------|
B|------------------------------|---------------------------------------|
G|------------------------------|---------------------------------------|
D|-7-7-7-7--7-7-7--7-7-7--7-7-7-|-12-12-xxxx-11-11-xxxx-9-9-xxxx-7-xx-7-|
A|-7-7-7-7--7-7-7--7-7-7--7-7-7-|-12-12-xxxx-11-11-xxxx-9-9-xxxx-7-xx-7-|
D|-7-7-7-7--7-7-7--7-7-7--7-7-7-|-12-12-xxxx-11-11-xxxx-9-9-xxxx-7-xx-7-|

e|------------------------------|------------------------------|
B|------------------------------|------------------------------|
G|------------------------------|------------------------------|
D|-5-5-5-5--5-5-5--5-5-5--5-5-5-|-9-9-9-9--9-9-9--9-9-9--9-9-9-|
A|-5-5-5-5--5-5-5--5-5-5--5-5-5-|-9-9-9-9--9-9-9--9-9-9--9-9-9-|
D|-5-5-5-5--5-5-5--5-5-5--5-5-5-|-9-9-9-9--9-9-9--9-9-9--9-9-9-|

e|------------------------------|---------------------------------------|
B|------------------------------|---------------------------------------|
G|------------------------------|---------------------------------------|
D|-7-7-7-7--7-7-7--7-7-7--7-7-7-|-12-12-xxxx-11-11-xxxx-9-9-xxxx-7-xx-7-|
A|-7-7-7-7--7-7-7--7-7-7--7-7-7-|-12-12-xxxx-11-11-xxxx-9-9-xxxx-7-xx-7-|
D|-7-7-7-7--7-7-7--7-7-7--7-7-7-|-12-12-xxxx-11-11-xxxx-9-9-xxxx-7-xx-7-|

while a second guitar plays

e|------------------------------|------------------------------|
B|-------7------7------7--------|-------5------5------5--------|
G|---7------7------7------7---7-|---6------6------6------6---6-|
D|-5---5------5------5------5---|-4---4------4------4------4---|
A|------------------------------|------------------------------|
D|------------------------------|------------------------------|

e|------------------------------|---------------------------------------|
B|-------7------7------7--------|---------------------------------------|
G|---7------7------7------7---7-|---------------------------------------|
D|-5---5------5------5------5---|-12-12-xxxx-11-11-xxxx-9-9-xxxx-7-xx-7-|
A|------------------------------|-12-12-xxxx-11-11-xxxx-9-9-xxxx-7-xx-7-|
D|------------------------------|-12-12-xxxx-11-11-xxxx-9-9-xxxx-7-xx-7-|

e|------------------------------|------------------------------|
B|-------7------7------7--------|-------5------5------5--------|
G|---7------7------7------7---7-|---6------6------6------6---6-|
D|-5---5------5------5------5---|-4---4------4------4------4---|
A|------------------------------|------------------------------|
D|------------------------------|------------------------------|

e|------------------------------|---------------------------------------|
B|-------7------7------7--------|---------------------------------------|
G|---7------7------7------7---7-|---------------------------------------|
D|-5---5------5------5------5---|-12-12-xxxx-11-11-xxxx-9-9-xxxx-7-xx-7-|
A|------------------------------|-12-12-xxxx-11-11-xxxx-9-9-xxxx-7-xx-7-|
D|------------------------------|-12-12-xxxx-11-11-xxxx-9-9-xxxx-7-xx-7-|


Bridge


e|------------------------------|------------------------------|
B|-------7------7------7--------|-------5------5------5--------|
G|---7------7------7------7---7-|---6------6------6------6---6-|
D|-5---5------5------5------5---|-4---4------4------4------4---|
A|------------------------------|------------------------------|
D|------------------------------|------------------------------|


e|------------------------------|------------------------------|
B|-------7------7------7--------|-------5------5------5--------|
G|---7------7------7------7---7-|---6------6------6------6---6-|
D|-5---5------5------5------5---|-4---4------4------4------4---|
A|------------------------------|------------------------------|
D|------------------------------|------------------------------|


e|------------------------------|------------------------------|
B|-------7------7------7--------|-------5------5------5--------|
G|---7------7------7------7---7-|---6------6------6------6---6-|
D|-5---5------5------5------5---|-4---4------4------4------4---|
A|------------------------------|------------------------------|
D|------------------------------|------------------------------|

e|------------------------------|---------------------------------------|
B|-------7------7------7--------|---------------------------------------|
G|---7------7------7------7---7-|---------------------------------------|
D|-5---5------5------5------5---|-12-12-xxxx-11-11-xxxx-9-9-xxxx-7-xx-7-|
A|------------------------------|-12-12-xxxx-11-11-xxxx-9-9-xxxx-7-xx-7-|
D|------------------------------|-12-12-xxxx-11-11-xxxx-9-9-xxxx-7-xx-7-|

e|------------------------------|------------------------------|
B|-------7------7------7--------|-------5------5------5--------|
G|---7------7------7------7---7-|---6------6------6------6---6-|
D|-5---5------5------5------5---|-4---4------4------4------4---|
A|------------------------------|------------------------------|
D|------------------------------|------------------------------|

e|------------------------------|---------------------------------|
B|-------7------7------7--------|---------------------------------|
G|---7------7------7------7---7-|---------------------------------|
D|-5---5------5------5------5---|-5-5-5-5-5-5-5-5-7-7-7-7-7-7-7-7-|
A|------------------------------|-5-5-5-5-5-5-5-5-7-7-7-7-7-7-7-7-|
D|------------------------------|-5-5-5-5-5-5-5-5-7-7-7-7-7-7-7-7-|
pm                                . . . . . . . . . . . . . . . .

e|------------------|
B|--------------13b-|
G|------------------|
D|------------------|
A|------------------|
D|-0-10h12-0-0------|


Chorus

e|------------------------------|------------------------------|
B|------------------------------|------------------------------|
G|------------------------------|------------------------------|
D|-5-5-5-5--5-5-5--5-5-5--5-5-5-|-9-9-9-9--9-9-9--9-9-9--9-9-9-|
A|-5-5-5-5--5-5-5--5-5-5--5-5-5-|-9-9-9-9--9-9-9--9-9-9--9-9-9-|
D|-5-5-5-5--5-5-5--5-5-5--5-5-5-|-9-9-9-9--9-9-9--9-9-9--9-9-9-|

e|------------------------------|---------------------------------------|
B|------------------------------|---------------------------------------|
G|------------------------------|---------------------------------------|
D|-7-7-7-7--7-7-7--7-7-7--7-7-7-|-12-12-xxxx-11-11-xxxx-9-9-xxxx-7-xx-7-|
A|-7-7-7-7--7-7-7--7-7-7--7-7-7-|-12-12-xxxx-11-11-xxxx-9-9-xxxx-7-xx-7-|
D|-7-7-7-7--7-7-7--7-7-7--7-7-7-|-12-12-xxxx-11-11-xxxx-9-9-xxxx-7-xx-7-|

e|------------------------------|------------------------------|
B|------------------------------|------------------------------|
G|------------------------------|------------------------------|
D|-5-5-5-5--5-5-5--5-5-5--5-5-5-|-9-9-9-9--9-9-9--9-9-9--9-9-9-|
A|-5-5-5-5--5-5-5--5-5-5--5-5-5-|-9-9-9-9--9-9-9--9-9-9--9-9-9-|
D|-5-5-5-5--5-5-5--5-5-5--5-5-5-|-9-9-9-9--9-9-9--9-9-9--9-9-9-|

e|------------------------------|---------------------------------------|
B|------------------------------|---------------------------------------|
G|------------------------------|---------------------------------------|
D|-7-7-7-7--7-7-7--7-7-7--7-7-7-|-12-12-xxxx-11-11-xxxx-9-9-xxxx-7-xx-7-|
A|-7-7-7-7--7-7-7--7-7-7--7-7-7-|-12-12-xxxx-11-11-xxxx-9-9-xxxx-7-xx-7-|
D|-7-7-7-7--7-7-7--7-7-7--7-7-7-|-12-12-xxxx-11-11-xxxx-9-9-xxxx-7-xx-7-|

while a second guitar plays

e|------------------------------|------------------------------|
B|-------7------7------7--------|-------5------5------5--------|
G|---7------7------7------7---7-|---6------6------6------6---6-|
D|-5---5------5------5------5---|-4---4------4------4------4---|
A|------------------------------|------------------------------|
D|------------------------------|------------------------------|

e|------------------------------|---------------------------------------|
B|-------7------7------7--------|---------------------------------------|
G|---7------7------7------7---7-|---------------------------------------|
D|-5---5------5------5------5---|-12-12-xxxx-11-11-xxxx-9-9-xxxx-7-xx-7-|
A|------------------------------|-12-12-xxxx-11-11-xxxx-9-9-xxxx-7-xx-7-|
D|------------------------------|-12-12-xxxx-11-11-xxxx-9-9-xxxx-7-xx-7-|

e|------------------------------|------------------------------|
B|-------7------7------7--------|-------5------5------5--------|
G|---7------7------7------7---7-|---6------6------6------6---6-|
D|-5---5------5------5------5---|-4---4------4------4------4---|
A|------------------------------|------------------------------|
D|------------------------------|------------------------------|

e|------------------------------|---------------------------------------|
B|-------7------7------7--------|---------------------------------------|
G|---7------7------7------7---7-|---------------------------------------|
D|-5---5------5------5------5---|-12-12-xxxx-11-11-xxxx-9-9-xxxx-7-xx-7-|
A|------------------------------|-12-12-xxxx-11-11-xxxx-9-9-xxxx-7-xx-7-|
D|------------------------------|-12-12-xxxx-11-11-xxxx-9-9-xxxx-7-xx-7-|


Outro

e|----------------------|---------------------------------|
B|----------------------|---------------------------------|
G|----------------------|---------------------------------|
D|-5--------------------|-5-5-5-5-5-5-5-5-7-7-7-7-7-7-7-7-|
A|-5--------------------|-5-5-5-5-5-5-5-5-7-7-7-7-7-7-7-7-|
D|-5--------------------|-5-5-5-5-5-5-5-5-7-7-7-7-7-7-7-7-|
pm                        . . . . . . . . . . . . . . . . 

e|------------------------------|------------------------------|
B|------------------------------|------------------------------|
G|------------------------------|------------------------------|
D|------------------------------|------------------------------|
A|-0-10h12-0-0-0-10h12-10h12-15-|-0-10h12-0-0-0-10h12-17-17-15-|
D|-0-10h12-0-0-0-10h12-10h12-15-|-0-10h12-0-0-0-10h12-17-17-15-|

e|------------------------------|--------------------------------------|
B|------------------------------|--------------------------------------|
G|------------------------------|--------------------------------------|
D|------------------------------|-----8-10-8------------10-12-10-------|
A|-0-10h12-0-0-0-10h12-10h12-15-|---8--------8-------10----------10----|
D|-0-10h12-0-0-0-10h12-10h12-15-|-8------------8--10----------------10-|

e|------------------------------|------------------------------|
B|------------------------------|------------------------------|
G|------------------------------|------------------------------|
D|------------------------------|------------------------------|
A|-0-10h12-0-0-0-10h12-10h12-15-|-0-10h12-0-0-0-10h12-17-17-15-|
D|-0-10h12-0-0-0-10h12-10h12-15-|-0-10h12-0-0-0-10h12-17-17-15-|

e|------------------------------|--------------------------------------|
B|------------------------------|--------------------------------------|
G|------------------------------|--------------------------------------|
D|------------------------------|-----8-10-8------------10-12-10-------|
A|-0-10h12-0-0-0-10h12-10h12-15-|---8--------8-------10----------10----|
D|-0-10h12-0-0-0-10h12-10h12-15-|-8------------8--10----------------10-|

e|------------------------------|------------------------|
B|------------------------------|--------------13b-------|
G|------------------------------|------------------------|
D|------------------------------|------------------------|
A|------------------------------|------------------------|
D|-0-10h12-0-0-0-10h12-10h12-15-|-0-10h12-0-0------------|            
Submit corrections

↑ Back to top | Tablatures and chords for acoustic guitar and electric guitar, ukulele, drums are parodies/interpretations of the original songs. You may use it for private study, scholarship, research or language learning purposes only