Home » I » Inme »

Inme - 7 Weeks Bass

Artists:  A B C D E F G H I J K L M N O P Q R S T U V W X Y Z # 

7 Weeks Bass

(ver. 1) Click to play this song!
Inme
Intro/Verse

G|-----------------------------------------------------|
D|-----------------------------------------------------|
A|---------------------------8--------------------10-8-|
D|0-10-12-0-0-10-12-10-12-12----0-10-12-0-0-10-12------|

G|--------------------------------------------------|
D|--------------------------------------------------|
A|---------------------------8----------------------|
D|0-10-12-0-0-10-12-10-12-12----8-8-8-8-10-10-10-10-|


Chorus x2

G|----------------------------------------------------------------|
D|----------------------------------------------------------------|
A|----------------------------------------------------------------|
D|5-5-5-5-5-5-5-5-9-9-9-9-9-11h12p11-7-7-7-7-7-7-7-7-12--11--9--7-|

Thats pretty much it just listen to the song to pick out the exact timing and see when 
bass comes in as sometimes only the guitar plays

Sorted!
            
Submit corrections

↑ Back to top | Tablatures and chords for acoustic guitar and electric guitar, ukulele, drums are parodies/interpretations of the original songs. You may use it for private study, scholarship, research or language learning purposes only