Home » I » Incubus »

Incubus - Just A Phase Tabs

Artists:  A B C D E F G H I J K L M N O P Q R S T U V W X Y Z # 

Just A Phase Tabs

(ver. 3) Click to play this song!
Incubus
----------------|----------------|-------0----0--0--0-|---0--0--0--0----0---|-
----------------|----------------|-------0----0--0--0-|---0--0--0--0----0---|-
-----------0---6|---4-------0----|-------11---11-11-11|---11-11-11-11---11--|-
---------5---0--|-7---5-------0--|-----0-0----0--0--0-|---0--0--0--0----0---|-
---0-4-5--------|-------5h7-----0|---9---9----9--9--9-|---9--9--9--9--9-9--9|-
-0--------------|----------------|-7-----7----7--7--7-|---7--7--7--7--7-7--7|-
 Intro:>A<(00:09)                                                        (4x) 

-0-----0-0-0-0-0-|---0-0-0-0-0-0-0-|---------0--0--0--0--|---0--0--0--0--0----
-0-----0-0-0-0-0-|---0-0-0-0-0-0-0-|---------0--0--0--0--|---0--0--0--0--0----
-9-----9-9-9-9-9-|---9-9-9-9-9-9-9-|---------11-11-11-11-|---11-11-11-11-11---
-9-----9-9-9-9-9-|---9-9-9-9-9-9-9-|---------0--0--0--0--|---0--0--0--0--0----
-7-----7-7-7-7-7-|---7-7-7-7-7-7-7-|------9--9--9--9--9--|---9--9--9--9--9----
-0-----0-0-0-0-0-|---0-0-0-0-0-0-0-|-7----7--7--7--7--7--|---7--7--7--7--7----
 Intro:>B<                                                                    

-0--0--|-0-----0-0-0-0-0-|---0-0-0-0-0-0-0-|----------------------------------
-0--0--|-0-----0-0-0-0-0-|---0-0-0-0-0-0-0-|----------------------------------
-11-11-|-9-----9-9-9-9-9-|---9-9-9-9-9-9-9-|----------------------------------
-0--0--|-9-----9-9-9-9-9-|---9-9-9-9-9-9-9-|----------------------------------
-9--9--|-7-----7-7-7-7-7-|---7-7-7-7-7-7-7-|----------------------------------
-7--7--|-0-----0-0-0-0-0-|---0-0-0-0-0-0-0-|----------------------------------
                                                                              

----------------|----------------|-------0----0--0--0-|---0--0--0--0----0---|-
----------------|----------------|-------0----0--0--0-|---0--0--0--0----0---|-
-----------0---6|---4-------0----|-------11---11-11-11|---11-11-11-11---11--|-
---------5---0--|-7---5-------0--|-----0-0----0--0--0-|---0--0--0--0----0---|-
---0-4-5--------|-------5h7-----0|---9---9----9--9--9-|---9--9--9--9--9-9--9|-
-0--------------|----------------|-7-----7----7--7--7-|---7--7--7--7--7-7--7|-
 >A<                                                                     (4x) 

-0-----0-0-0-0-0-|---0-0-0-0-0-0-0-|--------0--0--0--0--0--|---0--0--0--0--0--
-0-----0-0-0-0-0-|---0-0-0-0-0-0-0-|--------0--0--0--0--0--|---0--0--0--0--0--
-9-----9-9-9-9-9-|---9-9-9-9-9-9-9-|--------11-11-11-11-11-|---11-11-11-11-11-
-9-----9-9-9-9-9-|---9-9-9-9-9-9-9-|--------0--0--0--0--0--|---0--0--0--0--0--
-7-----7-7-7-7-7-|---7-7-7-7-7-7-7-|--------9--9--9--9--9--|---9--9--9--9--9--
-0-----0-0-0-0-0-|---0-0-0-0-0-0-0-|-7------7--7--7--7--7--|---7--7--7--7--7--
 >B<                                                                          

--0--0--|-0-----0-0-0-0-0-|---0-0-0-0-0-0-0-|-0-----0-0-0-0-0-|---0-0-0-0-0-0-
--0--0--|-0-----0-0-0-0-0-|---0-0-0-0-0-0-0-|-0-----0-0-0-0-0-|---0-0-0-0-0-0-
--11-11-|-9-----9-9-9-9-9-|---9-9-9-9-9-9-9-|-4-----4-4-4-4-4-|---4-4-4-4-4-4-
--0--0--|-9-----9-9-9-9-9-|---9-9-9-9-9-9-9-|-5-----5-5-5-5-5-|---5-5-5-5-5-5-
--9--9--|-7-----7-7-7-7-7-|---7-7-7-7-7-7-7-|-5-----5-5-5-5-5-|---5-5-5-5-5-5-
--7--7--|-0-----0-0-0-0-0-|---0-0-0-0-0-0-0-|-3-----3-3-3-3-3-|---3-3-3-3-3-3-
                                                                              

---|-0-----0-0-0-0-0-|---0-0-0-0-0-0-0-|--------------------------------------
---|-0-----0-0-0-0-0-|---0-0-0-0-0-0-0-|--------------------------------------
---|-3-----3-3-3-3-3-|---3-3-3-3-3-3-3-|--------------------------------------
-0-|-4-----4-4-4-4-4-|---4-4-4-4-4-4-4-|--------------------------------------
-0-|-4-----4-4-4-4-4-|---4-4-4-4-4-4-4-|--------------------------------------
-0-|-2-----2-2-2-2-2-|---2-2-2-2-2-2-2-|--------------------------------------
                                                                              

-------0-----|-------------|-------0-----|-------------|-------0-----|--------
-------0-----|-------------|-------0-----|-----5-------|-------0-----|--------
-------6-----|-------0-----|-------6-----|-----6-------|-------6-----|--------
-----6---6---|-----4---4---|-----6---6---|---6---6-----|-----6---6---|-----4--
---7-------7-|---5-------5-|---7-------7-|-4---------6-|---7-------7-|---5----
-0-----------|-3-----------|-0-----------|---------4---|-0-----------|-3------
 >C<                                                                          

-------|-------0-----|------------|-------0-----|-------------|-------0-----|-
-------|-------0-----|-----5------|-------0-----|-------------|-------0-----|-
-0-----|-------6-----|-----6------|-------6-----|-------0-----|-------6-----|-
---4---|-----6---6---|---6---6----|-----6---6---|-----4---4---|-----6---6---|-
-----5-|---7-------7-|-4---------6|---7-------7-|---5-------5-|---7-------7-|-
-------|-0-----------|---------4--|-0-----------|-3-----------|-0-----------|-
                                                                              

-|-------------|-------0-----|-------------|-------0-----|-------------|------
-|-----5-------|-------0-----|-------------|-------0-----|-----5-------|------
-|----6--------|-------6-----|-------0-----|-------6-----|-----6-------|------
-|---6---6-----|-----6---6---|-----4---4---|-----6---6---|---6---6-----|------
-|-4---------6-|---7-------7-|---5-------5-|---7-------7-|-4---------6-|------
-|---------4---|-0-----------|-3-----------|-0-----------|---------4---|------
                                                                              

-------0-----|-------------|-------0-----|-------------|-------0-----|--------
-------0-----|-------------|-------0-----|-----5-------|-------0-----|--------
-------6-----|-------0-----|-------6-----|----6--------|-------6-----|--------
-----6---6---|-----4---4---|-----6---6---|---6---6-----|-----6---6---|-----4--
---7-------7-|---5-------5-|---7-------7-|-4---------6-|---7-------7-|---5----
-0-----------|-3-----------|-0-----------|---------4---|-0-----------|-3------
 Verse 1:(02:22)                                                              

-------|-------0-----|-------------|------------------------------------------
-------|-------0-----|-----5-------|------------------------------------------
-0-----|-------6-----|-----6-------|------------------------------------------
---4---|-----6---6---|---6---6-----|------------------------------------------
-----5-|---7-------7-|-4---------6-|------------------------------------------
-------|-0-----------|---------4---|------------------------------------------
                               (2x)                                           

-------------|---------|-------------|---------|-------------|---------|------
-------------|---------|-------------|---------|-------------|---------|------
-------0-----|---------|-------0-----|---------|-------0-----|---------|------
-----6---6---|---------|-----6---6---|---------|-----6---6---|---------|------
---4-------4-|---4---3-|---4-------4-|---4---7-|---4-------4-|---4---3-|---4--
-5-----------|-5---4---|-5-----------|-5---8---|-5-----------|-5---4---|-5----
 Bridge:(02:48)                                                               

---------|---------|----------------------------------------------------------
---------|---------|----------------------------------------------------------
---0-----|-----5-5-|----------------------------------------------------------
-6---6---|-----5-5-|----------------------------------------------------------
-------4-|---4-3-3-|----------------------------------------------------------
---------|-5---3-3-|----------------------------------------------------------
                                                                              

---------------0-|-0-0-0-0---------|---------------0-|-0-0-0-0---------|------
---------------0-|-0-0-0-0---------|---------------0-|-0-0-0-0---------|------
-5-5-5---------2-|-2-2-2-2---------|-5-5-5---------2-|-2-2-2-2---------|-5-5--
-5-5-5-6-6-2-2-2-|-2-2-2-2-5-5-5-55|-5-5-5-6-6-2-2-2-|-2-2-2-2-5-5-5-55|-5-5--
-3-3-3-6-6-2-2-0-|-0-0-0-0-5-5-5-55|-3-3-3-6-6-2-2-0-|-0-0-0-0-5-5-5-55|-3-3--
-3-3-3-4-4-0-0---|---------3-3-3-33|-3-3-3-4-4-0-0---|---------3-3-3-33|-3-3--
 Pre-chorus (03:02)                                                           

-----------0-|-0-0-0-0---------|---------------0-|-0-0-0-0---------|----------
-----------0-|-0-0-0-0---------|---------------0-|-0-0-0-0---------|----------
-5---------2-|-2-2-2-2---------|-5-5-5---------2-|-2-2-2-2---------|----------
-5-6-6-2-2-2-|-2-2-2-2-5-5-5-55|-5-5-5-6-6-2-2-2-|-2-2-2-2-5-5-----|----------
-3-6-6-2-2-0-|-0-0-0-0-5-5-5-55|-3-3-3-6-6-2-2-0-|-0-0-0-0-5-5-----|----------
-3-4-4-0-0---|---------3-3-3-33|-3-3-3-4-4-0-0---|---------3-3-----|----------
                                                                              

-------0-----|-------------|-------0-----|-------------|-------0-----|--------
-------0-----|-------------|-------0-----|-----5-------|-------0-----|--------
-------6-----|-------0-----|-------6-----|----6--------|-------6-----|--------
-----6---6---|-----4---4---|-----6---6---|---6---6-----|-----6---6---|-----4--
---7-------7-|---5-------5-|---7-------7-|-4---------6-|---7-------7-|---5----
-0-----------|-3-----------|-0-----------|---------4---|-0-----------|-3------
 Intro to verse 2:(03:16)                                                     

-------|-------0-----|-------------|-------0-----|-------------|-------0------
-------|-------0-----|-----5-------|-------0-----|-------------|-------0------
-0-----|-------6-----|-----6-------|-------6-----|-------0-----|-------6------
---4---|-----6---6---|---6---6-----|-----6---6---|-----4---4---|-----6---6----
-----5-|---7-------7-|-4---------6-|---7-------7-|---5-------5-|---7-------7--
-------|-0-----------|---------4---|-0-----------|-3-----------|-0------------
                                     Verse 2:                                 

-|-------------|-------0-----|-------------|-------0-----|-------------|------
-|-----5-------|-------0-----|-------------|-------0-----|-----5-------|------
-|----6--------|-------6-----|-------0-----|-------6-----|-----6-------|------
-|---6---6-----|-----6---6---|-----4---4---|-----6---6---|---6---6-----|------
-|-4---------6-|---7-------7-|---5-------5-|---7-------7-|-4---------6-|------
-|---------4---|-0-----------|-3-----------|-0-----------|---------4---|------
                                                                   (2x)       

-------------|---------|-------------|---------|-------------|---------|------
-------------|---------|-------------|---------|-------------|---------|------
-------0-----|---------|-------0-----|---------|-------0-----|---------|------
-----6---6---|---------|-----6---6---|---------|-----6---6---|---------|------
---4-------4-|---4---3-|---4-------4-|---4---7-|---4-------4-|---4---3-|---4--
-5-----------|-5---4---|-5-----------|-5---8---|-5-----------|-5---4---|-5----
 Bridge:(03:56)                                                               

---------|---------|----------------------------------------------------------
---------|---------|----------------------------------------------------------
---0-----|-----5-5-|----------------------------------------------------------
-6---6---|-----5-5-|----------------------------------------------------------
-------4-|---4-3-3-|----------------------------------------------------------
---------|-5---3-3-|----------------------------------------------------------
                                                                              

---------------0-|-0-0-0-0---------|---------------0-|-0-0-0-0---------|------
---------------0-|-0-0-0-0---------|---------------0-|-0-0-0-0---------|------
-5-5-5---------2-|-2-2-2-2---------|-5-5-5---------2-|-2-2-2-2---------|-5-5--
-5-5-5-6-6-2-2-2-|-2-2-2-2-5-5-5-55|-5-5-5-6-6-2-2-2-|-2-2-2-2-5-5-5-55|-5-5--
-3-3-3-6-6-2-2-0-|-0-0-0-0-5-5-5-55|-3-3-3-6-6-2-2-0-|-0-0-0-0-5-5-5-35|-3-3--
-3-3-3-4-4-0-0---|---------3-3-3-33|-3-3-3-4-4-0-0---|---------3-3-3-33|-3-3--
 Pre-chorus (04:06)                                                           

-----------0-|-0-0-0-0---------|----------------------------------------------
-----------0-|-0-0-0-0---------|----------------------------------------------
-5---------2-|-2-2-2-2---------|----------------------------------------------
-5-6-6-2-2-2-|-2-2-2-2-5-5-----|----------------------------------------------
-3-6-6-2-2-0-|-0-0-0-0-5-5-----|----------------------------------------------
-3-4-4-0-0---|---------3-3-----|----------------------------------------------
                                                                              

---------------0-|-0-0-0-0---------|---------------0-|------------------------
---------------0-|-0-0-0-0---------|---------------0-|------------------------
-5-5-5---------2-|-2-2-2-2---------|-5-5-5---------2-|------------------------
-5-5-5-6-6-2-2-2-|-2-2-2-2-5-5-5-55|-5-5-5-6-6-2-2-2-|------------------------
-3-3-3-6-6-2-2-0-|-0-0-0-0-5-5-5-55|-3-3-3-6-6-2-2-0-|------------------------
-3-3-3-4-4-0-0---|---------3-3-3-33|-3-3-3-4-4-0-0---|------------------------
 Chorus:(04:20)                (9x)
            
Submit corrections

↑ Back to top | Tablatures and chords for acoustic guitar and electric guitar, ukulele, drums are parodies/interpretations of the original songs. You may use it for private study, scholarship, research or language learning purposes only