Home » I » Incubus »

Incubus - Just A Phase Bass

Artists:  A B C D E F G H I J K L M N O P Q R S T U V W X Y Z # 

Just A Phase Bass

(ver. 1) Click to play this song!
Incubus
#------------Created with Taborama Tab Creator-----------------#


Instrument: 4 String Bass


Tuning: Standard (E A D G)

this is the best song of the morning view album and its really easy to play.

this is all of the intro

bass comes in at 0:44
G|------/11-9--9-11---------------/11-9----------------------------||
D|----9------------------7-9----9----------------------------------||
A|-7-------------------9------7------------------------------------||
E|-------------------7---------------------------------------------||

then a rest util 1:02
G|----------------||
D|-----7-9--------||
A|---9------------|| do this 4 times
E|-7--------------||

then it goes into
G|-----/11-9--9-11-------------/11-9-----||
D|---9-----------------7-9---9-----------||
A|-7-----------------9-----7-------------||
E|-----------------7---------------------||

then finally into
G|--------------------------------------||
D|--------------------------------------||
A|--------------------------------------||
E|-3333333333333333-2222222222222222----||

intro ends on
G|---||
D|---||
A|---||
E|-0-||

Verse
G|--------------------------------------------------6---------||
D|--------054-------------------------054----------6-6--------||
A|-----------5--------444---6------------5--------4----6------||
E|-0-r-03-------0-r-0-----4----0-r-03-------0-r-0-----4-------||

"who you are you"
G|---------------------------------||
D|---------------------------------||
A|-------------3--------------3----||
E|-5-r-54-5-r-5--5-r-54-5-r-5------||

chorus
G|------------------------||
D|------------------------||
A|-333--------------------||
E|-----44-00-55555-3333---||

===========Just A Phase
Incubus
Morning View


Intro
 DO this part intul about 1min and 2 seconds into it then it changes to
G||------------------|--------------------------|
D||----7/129----5/7/9|---5/7/9------------------|
A||-7----------------|----------7/--------------|
E||-0---------7------|-7------------------------|
Do that for how very many time u need to
Intro to verse now...(1:33) (Don't know how many times u hit each note
but u get the drift.
G||--------------------------------------------------------------------|
D||--------------------------------------------------------------------|
A||-7-7-7-7-7-7--------------------------------------------------------|
E||-------------7-7-7-7-7-7-0-0-0-0-0-0-3-3-3-3-3-3-3-3-3-2-2-2-2-2-2-2|

Verse Riff
   At the end of measure thro a fill in
heres what i play
G||-----------------6-4------|
D||---------(2)---------6-4-2|
A||--------------4-----------|
E||-0-r-3-r--0---------------|

For the who are u part (2:49)
G||--------------------------|
D||--------------------------|
A||--------------------------|Keep doing this till u get to....
E||--5-r-5-4-5---------------|

3:00  About
Chrous and ending...
G||------------------------------------------|
D||------------------------------------------|
A||-3-3-3------------------------------------|
E||-------4-4-4-0-0-5-5-5-5-5-5-3-3-3-0------|
            
Submit corrections

↑ Back to top | Tablatures and chords for acoustic guitar and electric guitar, ukulele, drums are parodies/interpretations of the original songs. You may use it for private study, scholarship, research or language learning purposes only