» » »

Incubus - Earth To Bella Tabs

Artists:  A B C D E F G H I J K L M N O P Q R S T U V W X Y Z # 

Earth To Bella Tabs

(ver. 1) Click to play this song!
Incubus
 Rating:
4/5 (4 votes)

 Earth To Bella lessons Tabs too difficult? Try these video lessons and learn fast
 
                (Part1)
Incubus - Earth To Bella Part 1
Light Grenades
           AIM: railmaster123

Easy song. Enjoy!


Standard Tuning (EADGbe)

Intro/verse: [Acoustic]

Chords:

Cmaj    Amin    Emaj     E7
 -0-     -0-     -0-     -0-|
 -1-     -1-     -0-     -0-|
 -0-     -2-     -1-     -1-|
 -2-     -2-     -2-     -0-|
 -3-     -0-     -2-     -2-|
 ---     ---     -0-     -0-|


Cmaj            Amin
Earth to Bella

Cmaj                        Amin
you think you've got it all figured in

Cmaj           Amin
Earth to Bella

Cmaj            Amin   Emaj
everything you know is wrong

              E7   Cmaj
well, almost

                 Amin
Earth to Bella

Cmaj                  Amin
i see where you are not listening

Cmaj               Amin
I bear the burden

Cmaj               Amin      Emaj
of being the voice that lets you know


we all grow old

       E7
and before you swim you've gotta be ok

Cmaj
to say


{Use power chords for the wah wah distortion part using the same chords}

e|----------------------------------------------------------------------------|
b|----------------------------------------------------------------------------|
G|-5---5---5----2-2-----5---5---5---2-2-2-2-----------------------------------|
D|-5---5---5----2-2-----5---5---5---2-2-2-2-----------------------------------|
A|-3---3---3----0-0-----3---3---3---0-0-0-0-----------------------------------|
E|----------------------------------------------------------------------------|


Cmaj           Amin
Earth to Bella

Cmaj                   Amin
The world can be an unfriendly place

Cmaj                 Amin
so hold your head up

Cmaj                    Emaj
do your best to save some face


its not so hard

                                 E7
just undo yourself and see the second sun

    Cmaj
and say


Chorus:

Ok to sink , I'm Ok to sink


Ok to sink

Outro: [Acoustic] {play this as soon as the distortion of the chorus stops}

e|---------------------------0-------0----0-------0-------------------------------|
b|-1-------1----1-------1------1-------1----1-------1-----------------------------|
G|---0-------0----0-------0------2------------2-----------------------------------|
D|-----2------------0--------3-----3------3-----3---------------------------------|
A|-3-----3------2-----2-----------------------------------------------------------|
E|--------------------------------------------------------------------------------|

Then play this until fade:

e|---------------------------0-------0----0-------0-------------------------------|
b|-1-------1----1-------1------1-------1----1-------1-----------------------------|
G|---0-------0----0-------0------2------------2-----------------------------------|
D|-----2------------2--------3-----3------3-----3---------------------------------|
A|-3-----3------3-----3-----------------------------------------------------------|
E|--------------------------------------------------------------------------------|


-Tom Lavery
            
Submit corrections


        Earth To Bella lessons Hard to play? Try these video lessons and learn fast Earth To Bella lessons
        
↑ Back to top | Tablatures and chords for acoustic guitar and electric guitar, ukulele, drums are parodies/interpretations of the original songs. You may use it for private study, scholarship, research or language learning purposes only