» » »

Huey Lewis And The News - Power Of Love Tabs

Artists:  A B C D E F G H I J K L M N O P Q R S T U V W X Y Z # 

Power Of Love Tabs

(ver. 1) Click to play this song!
Huey Lewis And The News
 Rating:
3.4/5 (10 votes)

 Power Of Love lessons Tabs too difficult? Try these video lessons and learn fast
 
                (Intro)
This is the main riff but i cant work out the chords to go with it.

E-----------------------------------------------------------------|
B-----------------------------------------------------------------|
G-----------------------------------------------------------------|
D-----------------------------------------------------------------|
A-3-3-3-3-----------------------2-3-3-3-3-----------------------2-|
E---------0-0-0-0-1-1-1-1-3-3-3-----------0-0-0-0-1-1-1-1-3-3-3---|

E-----------------------------------------------------------|
B-----------------------------------------------------------|
G-----------------------------------------------------------|
D-----------------------------------------------------------|
A-3-3-3-3-----------------------2-3-3-3-3-------------------|
E---------0-0-0-0-1-1-1-1-3-3-3-----------0-0-0-0-1-1-1-1-3-| (BREAK)
            
Submit corrections


        Power Of Love lessons Hard to play? Try these video lessons and learn fast Power Of Love lessons
        
↑ Back to top | Tablatures and chords for acoustic guitar and electric guitar, ukulele, drums are parodies/interpretations of the original songs. You may use it for private study, scholarship, research or language learning purposes only