Home » H » Huey Lewis And The News »

Huey Lewis And The News - Power Of Love Bass

Artists:  A B C D E F G H I J K L M N O P Q R S T U V W X Y Z # 

Power Of Love Bass

(ver. 2) Click to play this song!
Huey Lewis And The News
Huey Lewis And the News - The Power Of Love





Intro 6X
G-----------------------|
D-----------------------|
A-33--------------------| 
E-----001133------------|



Verse (You'll be able to get it, its easy) 11X
G---------------------------------|
D-1---------1---1-3-3-1-----------|
A----3-1-3---3----------3---------|
E---------------------------------|


Chorus
         6X           then this once
G----------------|--------------------|
D----------------|--------------------|
A-33-------------|--2222--------------|
E-----001133-----|------111133333333(3) <- Last note short

Verse 6X
Chorus

  
    They say that all in love is fair
G-----------------------------------------------------|
D-----------------------------------------------------|
A-----------------------------------3-----------------|
E-0-----------------3---------------------------------|
yeah, but you don't care


    But you know what to do
G|--------------------------------------------------|
D|--------------------------------------------------|
A|0-------------------------------------------------|
E|----------------0------3--------------------------|

 
     when it gets hold of you
G-------------------------------------|
D-------------------------------------|
A-------------------------------------|
E-1---------------0-------------------|

  
    and with a little help from above

G--------------------------------------------------|
D--------------------------------------------------|
A--0-----------------------------------------------|
E----------------------3---------------------------|

Solo (Is the verse riff) 11X

Outro (Until End)
G-----------------|
D-----------------|
A-33--------------|
E-----001133------|
            
Submit corrections

↑ Back to top | Tablatures and chords for acoustic guitar and electric guitar, ukulele, drums are parodies/interpretations of the original songs. You may use it for private study, scholarship, research or language learning purposes only