Home » H » Huey Lewis And The News »

Huey Lewis And The News - Power Of Love Tabs

Artists:  A B C D E F G H I J K L M N O P Q R S T U V W X Y Z # 

Power Of Love Tabs

(ver. 5) Click to play this song!
Huey Lewis And The News
Tuning (eb A D G B E), Down ~ 10%, (eb, D) Down ~ 20%
Live Standard Tuning, Down ~ 10%
Bedroom Tuning* (eb A D G B E)
Key: (D + C#)


----|---------------------------------|
----|---------------------------------|
----|---------------------------------|
----|-5-5-5-2-2-2-2-2-3-3-3-5-5-5-5-5-|
----|-3-3-3-3-3-3-3-3-3-3-3-5-5-5-5-5-|
----|---------------------------------|
       

  Intro 



----|--------------------------------------------------------|
----|---------4-3-3-6--6--4-3------------4-3-3-6--6--4---3---|
----|-----3---3-3-3-5--5--3-3--5-----3---3-3-3-5--5--3---3---|
----|--------------------------5-----------------------------|
----|-3-3---3--------------------3-3---3---------------------|
----|--------------------------------------------------------|
     

  Verse
       


----|-----------------------------|
----|---------4-3-3-6--6--4-4-3-3-|
----|-----3---3-3-3-5--5--3-3-3-3-|
----|-----------------------------|
----|-3-3---3---------------------|
----|-----------------------------|    


  Verse Out
                            



----|---------------------------------|
----|---------------------------------|
----|---------------------------------|
----|-5-5-5-2-2-2-2-2-3-3-3-5-5-5-5-5-|
----|-3-3-3-3-3-3-3-3-3-3-3-5-5-5-5-5-|
----|---------------------------------|
 

   Chorus 



----|--------------------------------------|
----|--------------------------------------|
----|--------------------------------------|
----|-3-3-3-3-3-3-3-3-5-5-5-5-5-5-5-5-5----|
----|-1-1-1-1-3-3-3-3-5-5-5-5-5-5-5-5-5----|
----|--------------------------------------|
  

  Chorus Out 



----|-3---3---------------------------------3---------------3--3--3--3--3--|
----|-4---3---------------------------------4-----------4---4--4--4--4--4--|
----|--------------------8--------5---------5-----3-----5------------------|
----|----------5------8-----------6---------5-----5-----5------------------|
----|----------3---6--------------6---------3-----3-----3------------------|
----|-----------------------------5---------4------------------------------|


  Interlude                                    
Submit corrections

↑ Back to top | Tablatures and chords for acoustic guitar and electric guitar, ukulele, drums are parodies/interpretations of the original songs. You may use it for private study, scholarship, research or language learning purposes only