Home » H » Hopes Die Last »

Hopes Die Last - I Belong To The Skies Tabs

Artists:  A B C D E F G H I J K L M N O P Q R S T U V W X Y Z # 

I Belong To The Skies Tabs

(ver. 2) Click to play this song!
Hopes Die Last
First tab for me so don't be too brutal if i mess up

Intro/Chorus
e :----------7-----------6-------------------------------|
B :--4---4--------4---4----------------------------------|
G :4--4---4----4---4---4---------------------------------| x7
D :------------------------------------------------------|
A :------------------------------------------------------|
D :------------------------------------------------------|


e :----------7------------6-----------7-----6----2-------|
B :-4---4---------4---4------0---------------------------|
G :---4---4-----4---4---4--------------------------------|   End Of Chorus
D :------------------------------------------------------|
A :------------------------------------------------------|
D :------------------------------------------------------|


e :-------------------------------------------------------------|
B :--12-12-12-12-12--11-11-11-11-11--9-9-9-9-9--11-11-11-11-11--|
G :--x--x--x--x--x---x--x--x--x--x---x-x-x-x-x--x--x--x--x--x---| x3
D :--9--9--9--9--9---8--8--8--8--8---6-6-6-6-6--8--8--8--8--8---|
A :-------------------------------------------------------------|
D :-------------------------------------------------------------|

Verse                        (strum and listen for change)
e :------------------------------------------------------|
B :--12----12-11-14-----12-----11------------------------|
G :--x-----x--x--x------x------x-------------------------|
D :--9-----9--8--11-----9------8-------------------------|
A :------------------------------------------------------|
D :------------------------------------------------------|

       x14
e :------------------------------------------------------|
B :--12p11p0---------------------------------------------|
G :------------------------------------------------------| (listen for change)
D :------------------------------------------------------|
A :------------------------------------------------------|
E :------------------------------------------------------|

(chorus)
         x2             x4
e :------------------------------------------------------|
B :--12-11-7---------12-11-7-----------------------------|
G :------------------------------------------------------|
D :------------------------------------------------------|
A :------------------------------------------------------|
E :------------------------------------------------------|
     *  * *
(Verse & chorus)

(not sure about this part)
e :--9---9-------------------------------------------------|
B :----------7---------------------------------------------|
G :----9--9------------------------------------------------|
D :--------------------------------------------------------|
A :--------------------------------------------------------|
E :--------------------------------------------------------|

(chorus)
            
Submit corrections

↑ Back to top | Tablatures and chords for acoustic guitar and electric guitar, ukulele, drums are parodies/interpretations of the original songs. You may use it for private study, scholarship, research or language learning purposes only