» » »

Hillsong United - Say The Word Tabs

Artists:  A B C D E F G H I J K L M N O P Q R S T U V W X Y Z # 

Say The Word Tabs

(ver. 2) Click to play this song!
Hillsong United
 Rating:
3/5 (28 votes)

 Say The Word  lessons Tabs too difficult? Try these video lessons and learn fast
 
                Intro/verse:                                                                   (0.02-0.45)
------------
                                                 on 6th time go to prechorus
e|------------0---------------0---------------0-----|------------------------|
B|------3-------3-------3-------3-------5-------5---|-----3------------------|
G|----0---0-------0---0---0-------0---0---0-------0-|---5---5---5-4-2--------|
D|--2-------2-------3-------3-------5-------5-------|-5-------5--------------|
A|--------------------------------------------------|------------------------| x2 = intro
E|--------------------------------------------------|------------------------| x4 = verse -> prechorus


During prechorus you can also just play the C chord a bunch of times. 
There is a constant single note of 1st fret on B string that comes in at 0.44 until chorus


Prechorus:                                                                     (0.47-0.51)
----------
e|----------------------------------------|
B|------5-------------5---5---5---5---5---|
G|----0---0---5-5-5-5---5---5---5---5---5-|
D|--5-------5-----------------------------|
A|----------------------------------------|
E|----------------------------------------|

Chorus:                                                                        (0.52-1.23)
-------
e|---3-------------------3---3-------------------3---3-------------------3---3-------------------|
B|-------5---3---3-----3---------5---3---3-----3---------5---3---3-----3---------6---6---6---6---|
G|-5---5---5---5---4h5-----5---5---5---5---4h5-----5---5---5---5---4h5-----5---5---5---5---5---5-|
D|-----------------------------------------------------------------------------------------------|
A|-----------------------------------------------------------------------------------------------|
E|-----------------------------------------------------------------------------------------------| x2

Post-chorus:
------------
For the 'every word that you sa-a-a-ay, it will remain' part                   (1.24-1.38)
just strum chords to the beat, or chill and play nothing/improvise.


Post-chorus synth/Ooohs:                                                       (1.39-1.53)
------------------------
e|-----------------------------------------------------------------------------------------------| 
B|-------1-------3---3-1--------1-------3---3-1--------1-------3---3-1-------1-------3---3-3/5---|
G|-----0-------0---0----------0-------0---0----------0-------0---0---------0-------0---0---------|
D|-2h3-----2h3------------2h3-----2h3------------2h3-----2h3-----------2h3-----2h3---------------|
A|-----------------------------------------------------------------------------------------------|
E|-----------------------------------------------------------------------------------------------|LOW OCTAVE OR

e|-------8-------10-10-8--------8-------10-10-8--------8-------10-10-8-------8-------10-10-10/12-|
B|-----8-------8---8----------8-------8---8----------8-------8---8---------8-------8---8---------|
G|9h10----9h10-----------9h10----9h10-----------9h10----9h10----------9h10----9h10---------------|
D|-----------------------------------------------------------------------------------------------|
A|-----------------------------------------------------------------------------------------------|
E|-----------------------------------------------------------------------------------------------|HIGH OCTAVE



Verse:                                                                         (1.54-2.23)
-------
                                                 on 6th time go to prechorus
e|------------0---------------0---------------0-----|------------------------|
B|------3-------3-------3-------3-------5-------5---|-----3------------------|
G|----0---0-------0---0---0-------0---0---0-------0-|---5---5---5-4-2--------|
D|--2-------2-------3-------3-------5-------5-------|-5-------5--------------|
A|--------------------------------------------------|------------------------| x2 = intro
E|--------------------------------------------------|------------------------| x4 = verse -> prechorus



Prechorus:                                                                     (2.24-2.29)
----------
e|----------------------------------------|
B|------5-------------5---5---5---5---5---|
G|----0---0---5-5-5-5---5---5---5---5---5-|
D|--5-------5-----------------------------|
A|----------------------------------------|
E|----------------------------------------|


Chorus:                                                                        (2.30-3.31)
-------
e|---3-------------------3---3-------------------3---3-------------------3---3-------------------|
B|-------5---3---3-----3---------5---3---3-----3---------5---3---3-----3---------6---6---6---6---|
G|-5---5---5---5---4h5-----5---5---5---5---4h5-----5---5---5---5---4h5-----5---5---5---5---5---5-|
D|-----------------------------------------------------------------------------------------------|
A|-----------------------------------------------------------------------------------------------|
E|-----------------------------------------------------------------------------------------------| x4


Post-chorus synth/Ooohs:                                                       (3.32-4.01)
------------------------
e|-----------------------------------------------------------------------------------------------| 
B|-------1-------3---3-1--------1-------3---3-1--------1-------3---3-1-------1-------3---3-3/5---|
G|-----0-------0---0----------0-------0---0----------0-------0---0---------0-------0---0---------|
D|-2h3-----2h3------------2h3-----2h3------------2h3-----2h3-----------2h3-----2h3---------------|
A|-----------------------------------------------------------------------------------------------|
E|-----------------------------------------------------------------------------------------------|LOW OCTAVE OR

e|-------8-------10-10-8--------8-------10-10-8--------8-------10-10-8-------8-------10-10-10/12-|
B|-----8-------8---8----------8-------8---8----------8-------8---8---------8-------8---8---------|
G|9h10----9h10-----------9h10----9h10-----------9h10----9h10----------9h10----9h10---------------|
D|-----------------------------------------------------------------------------------------------|
A|-----------------------------------------------------------------------------------------------|
E|-----------------------------------------------------------------------------------------------|HIGH OCTAVE


Outro:                                                                         (4.02- end)
------
e|-----------------------------------------------------------------------------------------------| 
B|-------1-------3---3-1--------0-------3---3-1--------1-------3---3-1-------1-------3---3-3/5---|
G|-----0-------0---0----------0-------0---0----------0-------0---0---------0-------0---0---------|
D|-2h3-----2h3------------2h3-----2h3------------2h3-----2h3-----------2h3-----2h3---------------|
A|-----------------------------------------------------------------------------------------------|
E|-----------------------------------------------------------------------------------------------|

            
Submit corrections


        Say The Word  lessons Hard to play? Try these video lessons and learn fast Say The Word  lessons
        
↑ Back to top | Tablatures and chords for acoustic guitar and electric guitar, ukulele, drums are parodies/interpretations of the original songs. You may use it for private study, scholarship, research or language learning purposes only