» » »

Hillsong United - Rhythms Of Grace Tabs

Artists:  A B C D E F G H I J K L M N O P Q R S T U V W X Y Z # 

Rhythms Of Grace Tabs

(ver. 2) Click to play this song!
Hillsong United
 Rating:
4/5 (4 votes)

 Rhythms Of Grace lessons Tabs too difficult? Try these video lessons and learn fast
 
                
3/4 Time

Key: B (for original key just move everything a half-step up)

Tuning: Standard

INTRO (11's not 1's) [CLEAN W/DELAY & REVERB]
e|-7----\4----/11------|
B|-9-X6-\5-X6-/12-X12--|
G|---------------------|  X2
D|---------------------|
A|---------------------|
E|---------------------|

INTRO CONT.
e|-12----\11----/12-----\7------|
B|-14-X6-\12-X6-/14-X12-\7-X24--|
G|------------------------------|
D|------------------------------|
A|------------------------------|
E|------------------------------|

VERSE 1
e|-7----\4----/11------|
B|-9-X6-\5-X6-/12-X12--|
G|---------------------|  X2
D|---------------------|
A|---------------------|
E|---------------------|
                                        VERSE 1 & VERSE 1 CONT. X2
VERSE 1 CONT.
e|-12----\11----\7------7-------|
B|-14-X6-\12-X6-\9-X12-\7-X24---|
G|------------------------------|
D|------------------------------|
A|------------------------------|
E|------------------------------|

CHORUS                     AFTER SECOND TIME
e|-6-----/7-----\4---------/7~--|
B|-7-X12-/9-X12-\5-X24--X2-/7~--|
G|------------------------------|    X2
D|------------------------------|
A|------------------------------|
E|------------------------------|

VERSE 2 (DRIVING W/ NO DELAY)
e|---------------------------|
B|-444444555555444242444242--|
G|-444444444444444444444444--|    X2
D|---------------------------|
A|---------------------------|
E|---------------------------|
                                                VERSE 2 & VERSE 2 CONT. X2
VERSE 2 CONT. (1's not 11's)
e|---------------------------------------------------|
B|-555555444444000000000000-444242444242444242444242-|
G|-444444444444111111111111-444444444444444444444444-|
D|---------------------------------------------------|
A|---------------------------------------------------|
E|---------------------------------------------------|

CHORUS
e|---------------------------|
B|---4--4--4--4--4--4--4--4--|
G|--6--6--4--4--4--4--4--4---|    X4
D|-4--4--6--6--2--2--2--2----|
A|---------------------------|
E|---------------------------|
            
Submit corrections


        Rhythms Of Grace lessons Hard to play? Try these video lessons and learn fast Rhythms Of Grace lessons
        
↑ Back to top | Tablatures and chords for acoustic guitar and electric guitar, ukulele, drums are parodies/interpretations of the original songs. You may use it for private study, scholarship, research or language learning purposes only