» » »

Hillsong United - Perfect Love Tabs

Artists:  A B C D E F G H I J K L M N O P Q R S T U V W X Y Z # 

Perfect Love Tabs

(ver. 2) Click to play this song!
Hillsong United
 Rating:
4.3/5 (24 votes)

 Perfect Love lessons Tabs too difficult? Try these video lessons and learn fast
 
                INTRO:
E|-------------------------------------------------------------------|
B|---------3----------------3---------------3---------------3--------|
G|-----0-----0---0------0-----0---0-----0-----0---0-----0-----0---0--|
D|---4---4-----4------4---4-----4-----4---4-----4-----4---4-----4----| 2x
A|------------------3-------------------------------5----------------|
E|-0--------------------------------3--------------------------------|

VERSE:
(DO INTRO RIFF)

PRECHORUS:
Em- C- G- D-
Em- C-

CHORUS:
G- D- Em- C- G- D-

PREVERSE:
(DO INTRO RIFF)

VERSE 2:
(DO INTRO RIFF) then
E|--19~~~----------------------------------------------|
B|-----------------------------------------------------|
G|--------9~~~-8~~~-11~~~-16~~~-9~~~-8~~~-6~~~---------|
D|-----------------------------------------------------|
A|-----------------------------------------------------|
E|-----------------------------------------------------|

PRECHORUS 2:
   (4x)(8x)(4x)(8x)(4x)(2x)(2x)(8x)(16x)
E|-----------------------------------------------------|
B|-----------------------------------------------------|
G|------11--9---8---6---9---8-------9------------------|
D|--9----------------------------9---------------------|
A|-----------------------------------------------------|
E|-----------------------------------------------------|

CHORUS 2:
(DO CHORUS CHORDS)
E|-----11-9-9----14----------9--|
B|--12--------12----12-12-12----|
G|------------------------------|
D|------------------------------|
A|------------------------------|
E|------------------------------| (CONTINUE...)


SOLO:

    C-                                  D-
E|-------------------------------------------------------|
B|--9-------9-9---------9-9-------------11-----11--------|
G|--11b(13)-----11b(13)-----11b(13)r11--13b(15)----------|
D|-------------------------------------------------------|
A|-------------------------------------------------------|
E|-------------------------------------------------------|

    Em-                                     D-
E|-------------------------------------------------------|
B|--12------12-12---------12-12-------------14-----14----|
G|--14b(16)-------14b(16)-------14b(16)r14--16b(18)------|
D|-------------------------------------------------------|
A|-------------------------------------------------------|
E|-------------------------------------------------------|

    C-                                       D-
E|-------------------------------------------------------|
B|--16------16-16---------16-16--------------------------|
G|--18b(20)-------18b(20)-------18b(20)----r18-18--------|
D|-------------------------------------------------------|
A|-------------------------------------------------------|
E|-------------------------------------------------------|

    G-
E|-----14-14----14-14----14-14----14-14----14-14-14------|
B|-------------------------------------------------------|
G|--16-------16-------16-------16-------16---------------|
D|-------------------------------------------------------|
A|-------------------------------------------------------|
E|-------------------------------------------------------|

    C-                                     D-
E|-------------------------------------------------------|
B|--16------16-16---------16-16--------------------------|
G|--18b(20)-------18b(20)-------18b(20)------------------|
D|-------------------------------------------------------|
A|-------------------------------------------------------|
E|-------------------------------------------------------|

    Em-                                                     D-
E|----------------------------------------------------------18------|
B|--16------16-16---------16-16---------16-16---------16-16----16---|
G|--18b(20)-------18b(20)-------18b(20)-------18b(20)---------------|
D|------------------------------------------------------------------|
A|------------------------------------------------------------------|
E|------------------------------------------------------------------|

    C-                                      D-
E|-------------------------------------------------------|
B|--16------16-16---------16-16--------------------------|
G|--18b(20)-------18b(20)-------18b(20)----r18-18--------|
D|-------------------------------------------------------|
A|-------------------------------------------------------|
E|-------------------------------------------------------|

    G-
E|-----14-14----14-14----14-14----14-14----14-14\\\------|
B|-------------------------------------------------------|
G|--16-------16-------16-------16-------16---------------|
D|-------------------------------------------------------|
A|-------------------------------------------------------|
E|-------------------------------------------------------|


Bridge:
C- D- Em- D-
C- D- G-


E|-----------14-11----11----------14-11-----------------|
B|--------12-------14----------12-------14-12-----------|
G|--11-13----------------11-13--------------------------|
D|------------------------------------------------------|  2x
A|------------------------------------------------------|
E|------------------------------------------------------|

            (3x)(3x)(3x)(3x)         (3x)(3x)(3x)(4x)
E|-----------14--11------11-----------14--11------------|
B|--------12---------14------------12---------14--12----|
G|--11-13--------------------11-13----------------------|
D|------------------------------------------------------| 3x
A|------------------------------------------------------|
E|------------------------------------------------------|

            (3x)(3x)(3x)(3x)
E|-----------14--11------11--|
B|--------12---------14------|
G|--11-13--------------------|
D|---------------------------|
A|---------------------------|
E|---------------------------|  G-

(DO CHORDS TILL END)
C- D- Em- D-
C- D- G-

G- C- G-
            
Submit corrections


        Perfect Love lessons Hard to play? Try these video lessons and learn fast Perfect Love lessons
        
↑ Back to top | Tablatures and chords for acoustic guitar and electric guitar, ukulele, drums are parodies/interpretations of the original songs. You may use it for private study, scholarship, research or language learning purposes only