» » »

Hillsong United - Oceans Where Feet May Fail Tabs

Artists:  A B C D E F G H I J K L M N O P Q R S T U V W X Y Z # 

Oceans Where Feet May Fail Tabs

(ver. 1) Click to play this song!
Hillsong United
 Rating:
4.4/5 (11 votes)

 Oceans Where Feet May Fail lessons Tabs too difficult? Try these video lessons and learn fast
 
                [Intro]

e|-----7---------7---------7---------8----------9-----------9-----------9-----------9--------|
B|-------------------------------------------------------------------------------------------|
G|---7---7-----7---7-----7---7-----8---8-----10---10-----10---10-----10---10-----10---10-----|
D|-------------------------------------------------------------------------------------------|
A|-------------------------------------------------------------------------------------------|
E|-7-------7-7-------7-7-------7/8-------8/9---------9-9---------9-9---------9-9----------9\5|

e|---5---------5---------5---------5---------3---------3---------3---------3------|
B|--------------------------------------------------------------------------------|
G|-6---6-----6---6-----6---6-----6---6-----4---4-----4---4-----4---4-----4---4----|
D|--------------------------------------------------------------------------------|
A|--------------------------------------------------------------------------------|
E|-------5-5-------5-5-------5-5-------5\3-------3-3-------3-3-------3-3-------3/7| Repeat            
Submit corrections


        Oceans Where Feet May Fail lessons Hard to play? Try these video lessons and learn fast Oceans Where Feet May Fail lessons
        
↑ Back to top | Tablatures and chords for acoustic guitar and electric guitar, ukulele, drums are parodies/interpretations of the original songs. You may use it for private study, scholarship, research or language learning purposes only