» » »

Hillsong United - Nova Tabs

Artists:  A B C D E F G H I J K L M N O P Q R S T U V W X Y Z # 

Nova Tabs

(ver. 2) Click to play this song!
Hillsong United
 Rating:
4/5 (4 votes)

 Nova lessons Tabs too difficult? Try these video lessons and learn fast
 
                
*****************************************************************************


Capo 2
(Notes relative to capo)

VERSES

e|--------------------------------0------0----------------------|
B|----------3-3-3------3-3-3------2------2----------------------|
G|--------2---------0-------------2------2----------------------|
D|--------------------------------2------2----------------------|
A|--------------------------------0------0----------------------|
E|--------------------------------------------------------------|


e|-----------------------------------0------0-------------------|
B|----------3-3-3-3-3----3-3-3-3-----2------2-------------------|
G|--------2-----------0--------------2------2-------------------|
D|-----------------------------------2------2-------------------|
A|-----------------------------------0------0-------------------|
E|--------------------------------------------------------------|


CHORUS

e|----------5--5------5---5-------5---5------5--5---------------|
B|-------5----------5-----------5----------5--------------------|
G|----6-----6-----6----6-----6----6------6---6------------------|
D|--------------------------------------------------------------|
A|--------------------------------------------------------------|
E|--------------------------------------------------------------|

e|-------6---6------6--6------------4---4-------4---4-----------|
B|-----7----------7---------------5-----------5-----------------|
G|---6----6-----6----6----------4----4------4----4--------------|
D|--------------------------------------------------------------|
A|--------------------------------------------------------------|
E|--------------------------------------------------------------|

Other guitar plays the basic notes. (Notes in Standar tuning)

B       -       F#      -       G#m     -       E


Bridge

e|---0----2---2-----------|
B|---2----2---5-----------|
G|---2----2---4-----------|
D|---2----4---2-----------|
A|---0----4---2-----------|
E|--------2---------------|



****************************************************************************
            
Submit corrections


        Nova lessons Hard to play? Try these video lessons and learn fast Nova lessons
        
↑ Back to top | Tablatures and chords for acoustic guitar and electric guitar, ukulele, drums are parodies/interpretations of the original songs. You may use it for private study, scholarship, research or language learning purposes only