» » »

Hillsong United - Mighty To Save Tabs

Artists:  A B C D E F G H I J K L M N O P Q R S T U V W X Y Z # 

Mighty To Save Tabs

(ver. 3) Click to play this song!
Hillsong United
 Rating:
4.4/5 (5 votes)

 Mighty To Save lessons Tabs too difficult? Try these video lessons and learn fast
 
                [Intro] 
guitar 1 [Nigel]
e|-------9-------9-------9--------9--------9------------------------|  
B|----12------12------12-------12-------12--------------------------|
G|-14------14------14-------14-------14-----------------------------|  x10
D|------------------------------------------------------------------|
A|------------------------------------------------------------------|
E|------------------------------------------------------------------|

guitar 2
e|----x------x-----x--------------------|
B|---10-----10----10--------------------|
G|---x------x-----x---------------------|
D|---7------7-----7---------------------|
A|--------------------------------------|
E|--------------------------------------|            
Submit corrections


        Mighty To Save lessons Hard to play? Try these video lessons and learn fast Mighty To Save lessons
        
↑ Back to top | Tablatures and chords for acoustic guitar and electric guitar, ukulele, drums are parodies/interpretations of the original songs. You may use it for private study, scholarship, research or language learning purposes only