» » »

Hillsong United - Kingdom Come Tabs

Artists:  A B C D E F G H I J K L M N O P Q R S T U V W X Y Z # 

Kingdom Come Tabs

(ver. 1) Click to play this song!
Hillsong United
 Rating:
4/5 (4 votes)

 Kingdom Come lessons Tabs too difficult? Try these video lessons and learn fast
 
                cordes
Bm G A D

el feedback del delay debe estar en cero
el d.time en 320 ms


intro

g1 over drive/reverb

e------------------------------------------------|
b--5/7-775557775557575--5/10-1010-5557775557575--|
g------------------------------------------------|
d------------------------------------------------|
a------------------------------------------------|
e------------------------------------------------|

e-----------------------------------------------|
g-5/12-1212---5557775557575---------------------|
g---------------------------777666444-777666444-|
d-----------------------------------------------|
a-----------------------------------------------|
e-----------------------------------------------|

e------------------------------------------------|
b--5/7-775557775557575--5/10-1010-5557775557575--|
g------------------------------------------------|
d------------------------------------------------|
a------------------------------------------------|
e------------------------------------------------|

e------------------------------------------------|
g-5/12-1212---5557775557575----------------------|
g---------------------------777666444-77766622/4-|
d------------------------------------------------|
a------------------------------------------------|
e------------------------------------------------|


se pueden tocar cualquiera de las dos parte de g2 es lo mismo
g2
e------------------------------------|
b--7----8----10----8-----------------|
g--7----7-----9----7-----------------|
d--9----9----11----9-----------------|
a------------------------------------|
E------------------------------------|

g2
over drive/reverb

e--------------------------------------------------|
b--------------------------------------------------|
g--4-----------------------------------------------|
d--4----5----7--4--5--7----------------------------|
a--2----5----7--4--5--7----------------------------|
e-------3----5--2--3--5----------------------------|x2

g3 acustica
e--2----3----x--2--3--x--------------------------------|
b--3----3----2--2--3--2--------------------------------|
g--4----0----2--2--0--2--------------------------------|
d--4----0----2--4--0--2--------------------------------|
a--2----2----0--4--2--0--------------------------------|
e--2----3----x--2--3--x--------------------------------|


verso1 guitarra phase s./over drive
tu amor me alcanzo señor..........
g3
e--2----3----x----3----------------------------------|
b--3----3----2----3----------------------------------|
g--4----0----2----0----------------------------------|
d--4----0----2----0----------------------------------|
a--2----2----0----2----------------------------------|
e--2----3----x----3----------------------------------|

g1

e----2------3----5------------------------|
b---3------3----5-------------------------|
g--4------4----6----7----7----------------|
d------------------4--4-5-----------------|
a-----------------------------------------|
e-----------------------------------------|


phase shifter/ over drive
en mi vive tu verdad...........

e----2------------------------------------|
b---3--2h3----2h3-5---55-3-2--------------|
g--4------4-------------------------------|
d-----------------------------------------|
a-----------------------------------------|
e-----------------------------------------|

pre coro

over drive/delay/echo
e-----------------------------------------|
b----12-14-15-----------------------------|
g--14-------------------------------------|
d-----------------------------------------|
a-----------------------------------------|
e-----------------------------------------|x2


coro    over drive/volumen pedal 50%
g1
e-----------------------------------------|
b-----------------------------------------|
g---7----4--------------------------------|
d---x--5-x--5-----------------------------|
a---5--x-2--x-----------------------------|
e------3----3-----------------------------|x2

intro solo una vez.

g2 over drive (puede agregarse un delay/echo a 320ms solo es opcional)
 donde tu estas fluye salvacion quiero mas de ti  mas de ti


e------------------------------------------------------------------|
b---7--7--7--7--7--8--8--8--8--8--7--7--7--7--7--8--8--8--8--8-----|
g--7--7--7--7--7--7--7--7--7--7--9--9--9--9--9--7--7--7--7--7------|
d-9--9--9--9--9--9--9--9--9--9--9--9--9--9--9--9--9--9--9--9-------|
a------------------------------------------------------------------|
e------------------------------------------------------------------|


verso 2
priemra vuelta solo dist.
Jesus la muerte vencion...

e----2------3----5------------------------|
b---3------3----5-------------------------|
g--4------4----6----7----7----------------|
d------------------4--4-5-----------------|
a-----------------------------------------|
e-----------------------------------------|

con over/delay/echo  d,time 320 ms
en fe me levantare.........
e----2------3----5------------------------|
b---3------3----5-------------------------|
g--4------4----6----7----7----------------|
d------------------4--4-5-----------------|
a-----------------------------------------|
e-----------------------------------------|


pre coro

over drive/delay/echo
e-----------------------------------------|
b----12-14-15-----------------------------|
g--14-------------------------------------|
d-----------------------------------------|
a-----------------------------------------|
e-----------------------------------------|x2

coro over drive

g1
e-----------------------------------------|
b-----------------------------------------|
g---7----4--------------------------------|
d---7--5-4--5-----------------------------|
a---5--5-2--5-----------------------------|
e------3----3-----------------------------|x2
  over drive
g2
e-----------------------------------------|
b-12--14--15----12-13-15----14-15-14--12--|
g-11--11--11----12-12-12----14-14-14--12--|
d-----------------------------------------|
a-----------------------------------------|
e-----------------------------------------|x2

g3


e--2--3--2--3--------------------------------------|
b--3--3--3--3--------------------------------------|
g--2--0--4--0--------------------------------------|
d-----0--4--0--------------------------------------|
a-----2--2--2--------------------------------------|
e-----3--2--3--------------------------------------|x2


 1ra guitarra over/reverb

puente
g1

e------------------------------------------------|
b--5/7-775557775557575--5/10-1010-5557775557575--|
g------------------------------------------------|
d------------------------------------------------|
a------------------------------------------------|
e------------------------------------------------|

e-----------------------------------------------|
g-5/12-1212---5557775557575---------------------|
g---------------------------777666444-777666444-|
d-----------------------------------------------|
a-----------------------------------------------|
e-----------------------------------------------|x2

g2
over drive/reverb


e--------------------------------------------------|
b--------------------------------------------------|
g--4-----------------------------------------------|
d--4----5----7--4--5--7----------------------------|
a--2----5----7--4--5--7----------------------------|
e-------3----5--2--3--5----------------------------|x2

g3 acustica
e--2----3----x--2--3--x--------------------------------|
b--3----3----2--2--3--2--------------------------------|
g--4----0----2--2--0--2--------------------------------|
d--4----0----2--4--0--2--------------------------------|
a--2----2----0--4--2--0--------------------------------|
e--2----3----x--2--3--x--------------------------------|

armonicos delay/echo con  hold o tap tremolo
e-----------------------------------------|
b-----x-----------------------------------|
g----x------------------------------------|
d---x-------------------------------------|
a--x--------------------------------------|
e-----------------------------------------|

pre final con delay/echo
e--14141414141414141414-12-14-------------|
b----------------------------15-----------|
g-----------------------------------------|
d-----------------------------------------|
a-----------------------------------------|
e-----------------------------------------|

e--12-14-12-14------12-14-1515151515151515-|
b-------------15--15-----------------------|
g------------------------------------------|
d------------------------------------------|
a------------------------------------------|
e------------------------------------------|x2

final g1
e-------------------------------------------------------------|
b-5/7-5-7-5-7-5-5/10-5-7-5-7-5-5/12-5-7-5-7-5-----------------|
g---------------------------------------------7-6-4-7-6-4-----|
d-------------------------------------------------------------|
a-------------------------------------------------------------|
e-------------------------------------------------------------|


e-------------------------------------------------------------|
b-5/7-5-7-5-7-5-5/10-5-7-5-7-5-5/12-5-7-5-7-5-----------------|
g---------------------------------------------7-6-4-2p--0-----|
d-------------------------------------------------------------|
a-------------------------------------------------------------|
e-------------------------------------------------------------|

g3 acustica resgueo suave.

e-2----3----5----3-------|
b-3----3----5----3-------|
g-4----0----6----0-------|
d-4----0----0----0-------|
a-----------0------------|
e------------------------|


myabe this tab be comlicated anr if have questions, you can to add me
my name is Zaul
            
Submit corrections


        Kingdom Come lessons Hard to play? Try these video lessons and learn fast Kingdom Come lessons
        
↑ Back to top | Tablatures and chords for acoustic guitar and electric guitar, ukulele, drums are parodies/interpretations of the original songs. You may use it for private study, scholarship, research or language learning purposes only