» » »

Hillsong United - Im Not Ashamed Tabs

Artists:  A B C D E F G H I J K L M N O P Q R S T U V W X Y Z # 

Im Not Ashamed Tabs

(ver. 1) Click to play this song!
Hillsong United
 Rating:
4/5 (4 votes)

 Im Not Ashamed lessons Tabs too difficult? Try these video lessons and learn fast
 
                -3s10-7--7--------------|
-----------8------------|
-------------7----------|
------------------------|
------------------------|
------------------------|

-3s10-7--7--------------|
-----------8-7b8r7------|
------------------------|
------------------------|
------------------------|
------------------------|

-3s10-7--7--------------|
-----------8------------|
-------------7----------|
------------------------|
------------------------|
------------------------|

-3s10-7----------------|
-----------8--7--------|
-----------7--7--------|
-----------------------|
-----------------------|
-----------------------|

Chords: C C G D

Intro/Pre-verse Riff
With wah. They don't hit the note on every beat in the cd, but I tried doing it in the video.
----------------------------|
-13-12-10-12---13-12-10-5---|
----------------------------|
----------------------------|
----------------------------|
----------------------------|

Chords: Em G C Am

2nd Verse
Keep repeating the follow riff:
-----------|
-3h5p3h5---|
-----------|
-----------|
-----------|
-----------|

In the 2nd half, play:
-14-10-12----10-----------------------------|
----------12----10-12----10-----------------|
----------------------12----11b12r11b12r11--|
--------------------------------------------|
--------------------------------------------|
--------------------------------------------|

-14-10-12----10----------------|
----------12----10-12----10----|
----------------------12----11-|
-------------------------------|
-------------------------------|
-------------------------------|

Chords: Em G C Am

Prechorus
------------------------------------|
-13----------12----------16---------|
----12-(x8)------12-(x4)----14-(x2)-|
------------------------------------|
------------------------------------|
------------------------------------|

Chords: C C G D

Chorus
Strum
--------------|
-12-16-12-13--|
-12-14-12-12--|
--------------|
--------------|
--------------|
Chords: G D Em C

Instrumental
----------------------------|
-13-12-10-12---13-12-10-5---|
----------------------------|
----------------------------|
----------------------------|
----------------------------|


----------------------------|
-13-12-10-12---13-12-15b17--|
----------------------------|
----------------------------|
----------------------------|
----------------------------|

-12-------------12----------------|
----15p12----------15p12----------|
----------14b16----------14b16-12-|
----------------------------------|
----------------------------------|
----------------------------------|
            
Submit corrections


        Im Not Ashamed lessons Hard to play? Try these video lessons and learn fast Im Not Ashamed lessons
        
↑ Back to top | Tablatures and chords for acoustic guitar and electric guitar, ukulele, drums are parodies/interpretations of the original songs. You may use it for private study, scholarship, research or language learning purposes only