» » »

Hillsong United - Freedom Is Here Tabs

Artists:  A B C D E F G H I J K L M N O P Q R S T U V W X Y Z # 

Freedom Is Here Tabs

(ver. 2) Click to play this song!
Hillsong United
 Rating:
4/5 (4 votes)

 Freedom Is Here lessons Tabs too difficult? Try these video lessons and learn fast
 
                Hillsong United
Freedom is Here


There are multiple entries for this, but hopefully this will simplify things.

Capo 2
Intro & entire song besides the bridge
C - G - D - Am7

Verse 1
The future comes alive, 
You speak your word and I
Am running into Your hope       
Cause I have seen Your light
You bring my world to life
I’m coming after Your love

Pre-Chorus
I’m not shaking, I’m not letting go

Chorus
Everything comes alive
In my life as we lift You higher
Let Your freedom arise
In our lives as we lift You up
Sing it out, sing it out

Tag
Your freedom is here

Verse 2
You take the limits off, no matter what the cost
I’m running after Your call
And I will run this race to see You face to face
So let Your pow’r overflow

Chorus
Tag x2

Bridge
C
I will not fear
Em                   G            D
I will not hide Your love, Your love
C                Em             G       D
All of my life I cannot deny Your love

Chorus x2
Tag x8 till the end


Obviously you can play this with no capo in D, but this way is a bit easier.


Here are the lead guitar parts:
Intro/Verse main riff, tabbed for guitar (use dotted 1/8 delay)
e|---------------------------------------------------------------------|
B|------10-----10---------10-----10----------9-----9-------------------|
G|--7-9----7-9----7-9---9------9------9----9-----9-----9---------------|
D|--------------------7------7------7----9-----9-----9-----------------|
A|---------------------------------------------------------------------|
E|---------------------------------------------------------------------|

or
e|---------------------------------------------------------------------|
B|------10-----10-----------10-----10----------9-----9-----------------|
G|----9------9-------9----9------9------9----9-----9----9--------------|
D|-12-----12------12-----------------------9-----9-----9---------------|
A|---------------------12-----12-----12--------------------------------|
E|---------------------------------------------------------------------|

or
e|---------------------------------------------------------------------|
B|------10-----10-----------10-----10-----------9-----9----------------|
G|----9------9-------9----9------9------9-----9-----9----9-------------|
D|--0------0-------0---(7)----(7)----(7)----9-----9-----9--------------|
A|----------------------0------0------0--------------------------------|
E|---------------------------------------------------------------------|


Pre-Verse Riff (again, dotted 1/8 delay)
e|---------------------------------------------------------------------|
B|--12-12--14-14--17-17--10-10--7~~----12-12--14-14--17-17--10-10--12~~|
G|---------------------------------------------------------------------|
D|--9--9---11-11--14-14--7--7---4~~----9--9---11-11--14-14--7--7---9~~-|
A|---------------------------------------------------------------------|
E|---------------------------------------------------------------------|


Chorus 
-10------9-------7------7------|
-10(X 8)-10(X 8)-9(X 8)-7(X 8)-|
-------------------------------|
-------------------------------| 
-------------------------------|
-------------------------------|



If you have any input or corrections, check out my blog for more info and 
let me know if you have any songs you need help with. God bless!
            
Submit corrections


        Freedom Is Here lessons Hard to play? Try these video lessons and learn fast Freedom Is Here lessons
        
↑ Back to top | Tablatures and chords for acoustic guitar and electric guitar, ukulele, drums are parodies/interpretations of the original songs. You may use it for private study, scholarship, research or language learning purposes only