» » »

Hillsong United - Desert Song Tabs

Artists:  A B C D E F G H I J K L M N O P Q R S T U V W X Y Z # 

Desert Song Tabs

(ver. 3) Click to play this song!
Hillsong United
 Rating:
4.3/5 (10 votes)

 Desert Song lessons Tabs too difficult? Try these video lessons and learn fast
 
                
[Intro]
[G1] 
E|-------------------------------------------|
B|--7--777-777-5-5-5-3-333-333-555-----------|
G|--7--777-777-6-6-6-4-444-444-666-----------|
D|--9--999-999-7-7-7-5-555-555-777-----------|
A|-------------------------------------------| (continuously)
E|-------------------------------------------|
PM  .  ... ... . . . . ... ... ...  

[G2]
E|--///10-9----------------------------------------------|
B|----------10/12\-7~~-5/10\-7~~-5-----------------------|
G|---------------------------------7-6-b(7)r6p4~~~-------|
D|-------------------------------------------------------|
A|-------------------------------------------------------|
E|-------------------------------------------------------|

[G3]
E|-------------------------------------------------------|
B|-------------------------------------------------------|
G|--///-7-6----------------------------------------------|
D|-----------7/9\-4~~--2/7\-4~~-2------------------------|
A|--------------------------------5-4-b(5)r4p2~~~--------|
E|-------------------------------------------------------|

[G1] 
E|-------------------------------------------|
B|--7--777-777-5-5-5-3-333-333-555-----------|
G|--7--777-777-6-6-6-4-444-444-666-----------|
D|--9--999-999-7-7-7-5-555-555-777-----------|
A|-------------------------------------------| (continuously)
E|-------------------------------------------|
PM  .  ... ... . . . . ... ... ...  

[G2]
E|--///10-9----------------------------------------------|
B|----------10/12\-7~~-5/10\-7~~-5-/10-12~~~-------------|
G|-------------------------------------------------------|
D|-------------------------------------------------------|
A|-------------------------------------------------------|
E|-------------------------------------------------------|

[G3]
E|-------------------------------------------------------|
B|-------------------------------------------------------|
G|--///-7-6----------------------------------------------|
D|-----------7/9\-4~~--2/7\-4~~-2-/7--9~~~---------------|
A|-------------------------------------------------------|
E|-------------------------------------------------------|

[Verse]
[G1] 
E|-------------------------------------------|
B|--7--777-777-5-5-5-3-333-333-555-----------|
G|--7--777-777-6-6-6-4-444-444-666-----------|
D|--9--999-999-7-7-7-5-555-555-777-----------|
A|-------------------------------------------| (continuously)
E|-------------------------------------------|
PM  .  ... ... . . . . ... ... ...  

[G2]
E|-------------------------------------------------------------|
B|-----7*----5*----------------7*--------7*----5*--------------|
G|--7*----7*-------7*-7*-5*-5*----7*--7*----7*-------7*-7*-5*--|
D|--------------7*--------------------------------7*-----------|
A|-------------------------------------------------------------|
E|-------------------------------------------------------------|

then...
(under G1)
[G2] 
E|------------------10---9--------------------10---9----|
B|----7---5---7-----------------7---5---7---------------|
G|--7---7---7---7/9----9---9--7---7---7---7/9----9---9--|
D|------------------------------------------------------|
A|------------------------------------------------------|
E|------------------------------------------------------|
|
E|------------------10---9------------------------------|
B|----7---5---7-----------------7---5---7-8-------------|
G|--7---7---7---7/9----9---9--7---7---7-----------------|
D|------------------------------------------------------|
A|------------------------------------------------------|
E|------------------------------------------------------|
|
E|--10-----10-----10-----10---------------|
B|-----8-8----8-8----8-8----8-8-7~~~------|
G|----------------------------------------|
D|----------------------------------------|
A|----------------------------------------|
E|----------------------------------------|

[Chorus]
D- A- G- D- A/C#-
A- Bm- G- A-

[Pre-Verse]
[G1] 
E|-------------------------------------------|
B|--7--777-777-5-5-5-3-333-333-555-----------|
G|--7--777-777-6-6-6-4-444-444-666-----------|
D|--9--999-999-7-7-7-5-555-555-777-----------|
A|-------------------------------------------| (continuously)
E|-------------------------------------------|
PM  .  ... ... . . . . ... ... ... 
 
[G2]
E|--///10-9----------------------------------------------|
B|----------10/12\-7~~-5/10\-7~~-5-----------------------|
G|---------------------------------7-6-b(7)r6p4~~~-------|
D|-------------------------------------------------------|
A|-------------------------------------------------------|
E|-------------------------------------------------------|

[G3]
E|-------------------------------------------------------|
B|-------------------------------------------------------|
G|--///-7-6----------------------------------------------|
D|-----------7/9\-4~~--2/7\-4~~-2------------------------|
A|--------------------------------5-4-b(5)r4p2~~~--------|
E|-------------------------------------------------------|

[Verse 2]
[G1] 
E|-------------------------------------------|
B|--7--777-777-5-5-5-3-333-333-555-----------|
G|--7--777-777-6-6-6-4-444-444-666-----------|
D|--9--999-999-7-7-7-5-555-555-777-----------|
A|-------------------------------------------| (continuously)
E|-------------------------------------------|
PM  .  ... ... . . . . ... ... ...  
then...
(under G1)

[G2]
E|-------------------------------------------------------------|
B|-----7*----5*----------------7*--------7*----5*--------------|
G|--7*----7*-------7*-7*-5*-5*----7*--7*----7*-------7*-7*-5*--|
D|--------------7*--------------------------------7*-----------|
A|-------------------------------------------------------------|
E|-------------------------------------------------------------|

[Chorus]
D- A- G- D- A/C#-
A- Bm- G- A-

[Bridge]
Bm-
D- Bm- A- G- D-

[Chorus]
D- A- G- D- A/C#-
A- Bm- G- A-

[Outro]
[G1] 
E|-------------------------------------------|
B|--7--777-777-5-5-5-3-333-333-555-----------|
G|--7--777-777-6-6-6-4-444-444-666-----------|
D|--9--999-999-7-7-7-5-555-555-777-----------|
A|-------------------------------------------| (continuously)
E|-------------------------------------------|
PM  .  ... ... . . . . ... ... ...  

[G2]
E|--///10-9----------------------------------------------|
B|----------10/12\-7~~-5/10\-7~~-5-----------------------|
G|---------------------------------7-6-b(7)r6p4~~~-------|
D|-------------------------------------------------------|
A|-------------------------------------------------------|
E|-------------------------------------------------------|

[G3]
E|-------------------------------------------------------|
B|-------------------------------------------------------|
G|--///-7-6----------------------------------------------|
D|-----------7/9\-4~~--2/7\-4~~-2------------------------|
A|--------------------------------5-4-b(5)r4p2~~~--------|
E|-------------------------------------------------------|

[G1] 
E|-------------------------------------------|
B|--7--777-777-5-5-5-3-333-333-555-----------|
G|--7--777-777-6-6-6-4-444-444-666-----------|
D|--9--999-999-7-7-7-5-555-555-777-----------|
A|-------------------------------------------| (continuously)
E|-------------------------------------------|
PM  .  ... ... . . . . ... ... ...  

[G2]
E|--///10-9----------------------------------------------|
B|----------10/12\-7~~-5/10\-7~~-5---10/12~~~~-----------|
G|---------------------------------7---------------------|
D|-------------------------------------------------------|
A|-------------------------------------------------------|
E|-------------------------------------------------------|

[G3]
E|-------------------------------------------------------|
B|-------------------------------------------------------|
G|--///-7-6----------------------------------------------|
D|-----------7/9\-4~~--2/7\-4~~-2----7/9~~~~-------------|
A|--------------------------------5----------------------|
E|-------------------------------------------------------|
            
Submit corrections


        Desert Song lessons Hard to play? Try these video lessons and learn fast Desert Song lessons
        
↑ Back to top | Tablatures and chords for acoustic guitar and electric guitar, ukulele, drums are parodies/interpretations of the original songs. You may use it for private study, scholarship, research or language learning purposes only