» » »

Hillsong United - Break Free Tabs

Artists:  A B C D E F G H I J K L M N O P Q R S T U V W X Y Z # 

Break Free Tabs

(ver. 3) Click to play this song!
Hillsong United
 Rating:
4/5 (4 votes)

 Break Free lessons Tabs too difficult? Try these video lessons and learn fast
 
                BREAK FREE {In a Valley By the Sea EP}

Verse
Same as before, but there is a slight difference in the muting. I've also added
some slides for fun.

Prechorus
e-------------------------------|
B----------------------2-2------|
G--------------------------2----|
D-----2---4------2---4----------|
A-------------------------------|
E-2-2---2----2-2---2------------|

e---------------------------------|
B---------------------------------|
G---------------------------------|
D-----4---4-6------4---4-6--------|
A-5-5---5--------5---5------------|
E---------------------------------|

e-------------------------------|
B----------------------2-2------|
G--------------------------2----|
D-----2---4------2---4----------|
A-------------------------------|
E-2-2---2----2-2---2------------|

Followed by D, Bm, then the chorus.

Chorus
Rather than playing power chords, the lead guitar strums:
-----------------|
-10--10--10--10--|
-9---7---9---7---|
-7---7---7---7---|
-----------------|
-----------------|

Bridge
----------------------|
-10-10-9h10-10--(x2)--|
-9--9--9----9---------|
----------------------|
----------------------|
----------------------|

----------------------|
-10-10-9h10-10--(x2)--|
----------------------|
-9--9--9----9---------|
----------------------|
----------------------|
            
Submit corrections


        Break Free lessons Hard to play? Try these video lessons and learn fast Break Free lessons
        
↑ Back to top | Tablatures and chords for acoustic guitar and electric guitar, ukulele, drums are parodies/interpretations of the original songs. You may use it for private study, scholarship, research or language learning purposes only