Home » H » Hilera »

Hilera - Define Tabs

Artists:  A B C D E F G H I J K L M N O P Q R S T U V W X Y Z # 

Define Tabs

(ver. 3) Click to play this song!
Hilera


                cool din tong kanta na to., aus din tugtugin., Ung Hilera, 3 members lng 
ewan q lang ngyun
	bka my nkuha na clang new member., 3 lng kc cla nung npanood ko sa myx., suportahan po 
ang pinoy music.,
	i dedicate dis tab to all my friends.,hehehe... i'm not quite sure., maybe 99.9%., 1st 
q mgsubmit ng tab.,


e|-----------------------------------------|
B|-----------------------------------------|
G|----6~------6~------6~------666666~------|
D|----6~------6~------6~------666666~------|
A|----4~------4~------4~------444444~------| (Timing Lang., Listen to the song)
E|-----------------------------------------|

Chorus: Part I
e|-------------------------------------------|
B|-------------------------------------------|
G|---66666666--------------------------------|
D|---66666666--66666666--88888888--44444444--|
A|---44444444--66666666--88888888--44444444--|
E|-------------44444444--66666666--22222222--|

Chorus:Part II
e|-------9------9-----9-----9-----9---|
B|----7-9----6-9----7-9---6-9----7-9--|
G|------------------------------------|
D|------------------------------------|(repeat several tyms, tyming)
A|------------------------------------|
E|------------------------------------|

Verse:
e|---------------------|
B|---------------------|
G|---6~----------------|
D|---6~--6~--8~--4~----|(x2)
A|---4~--6~--8~--4~----|
E|-------4~--6~--2~----|

then...(palm mute)
e|-------------------------------------------|
B|-------------------------------------------|
G|---66666666--------------------------------|
D|---66666666--66666666--88888888--44444444--|
A|---44444444--66666666--88888888--44444444--|
E|-------------44444444--66666666--22222222--|

Chorus: Part I
e|-------------------------------------------|
B|-------------------------------------------|
G|---66666666--------------------------------|
D|---66666666--66666666--88888888--44444444--|
A|---44444444--66666666--88888888--44444444--|
E|-------------44444444--66666666--22222222--|

Chorus:Part II
e|-------9------9-----9-----9-----9---|
B|----7-9----6-9----7-9---6-9----7-9--|(repeat several tyms, tyming dn)
G|------------------------------------|
D|------------------------------------|
A|------------------------------------|
E|------------------------------------|
Bridge:
e|-------------------------------|
B|-------------------------------|
G|-----------------66666---------|
D|---88888--44444--66666--66666--|
A|---88888--44444--44444--66666--|
E|---66666--22222---------44444--|

e|-------------------------------|
B|-------------------------------|
G|-----------------66666---------|
D|---88888--44444--66666--66666--|
A|---88888--44444--44444--66666--|
E|---66666--22222---------44444--|

e|-------------------------------|
B|-------------------------------|
G|-------------------------------|
D|---88888--44444----------------|
A|---88888--22222----------------|
E|---66666--22222----------------|

Verse:
e|---------------------|
B|---------------------|
G|---6~----------------|
D|---6~--6~--8~--4~----|(x2)
A|---4~--6~--8~--4~----|
E|-------4~--6~--2~----|

then...(palm mute)
e|-------------------------------------------|
B|-------------------------------------------|
G|---66666666--------------------------------|
D|---66666666--66666666--88888888--44444444--|
A|---44444444--66666666--88888888--44444444--| (x2)
E|-------------44444444--66666666--22222222--|

e|----------------------------|
B|----------------------------|
G|----------------------------|
D|---4444444---6666666--------|
A|---4444444---6666666--------|
E|---2222222---4444444--------|

Repeat Chorus
Repeat Chorus:Part II

	i would like to acknowledge., tropagats q D' Reciprocals \m/: Benox, BunBunan, Carlota, 
Harold, Agee.,
	comments/ suggestions, here's my contact number: 09065090653,
            
Submit corrections

↑ Back to top | Tablatures and chords for acoustic guitar and electric guitar, ukulele, drums are parodies/interpretations of the original songs. You may use it for private study, scholarship, research or language learning purposes only