Home » H » Hilera »

Hilera - Define Tabs

Artists:  A B C D E F G H I J K L M N O P Q R S T U V W X Y Z # 

Define Tabs

(Version #2)
Hilera
Define

Hilera


Intro: (kasabay ng drums)

|-------------------------------------------|
|-------------------------------------------|
|----7~-------7~------7~------7~---777777---|
|----7~-------7~------7~------7~---777777---|
|----5~-------5~------5~------5~---555555---|
|-------------------------------------------|

Chorus: Part I
|-------------------------------------------|
|-------------------------------------------|
|---77777777--------------------------------|
|---77777777--77777777--99999999--55555555--|
|---55555555--77777777--99999999--55555555--|
|-------------55555555--77777777--33333333--|

Chorus:Part II
|--0-5-7--0-5-7--0-5-7--0-5-7--0-5-7--|
|-------------------------------------|
|-------------------------------------|(repeat several times..)
|-------------------------------------|
|-------------------------------------|
|-------------------------------------|

Verse:
|---------------------|
|---------------------|
|---7~----------------|
|---7~--7~--9~--5~----|(x2)
|---5~--7~--9~--5~----|
|-------5~--7~--3~----|

then...(palm mute)
|-------------------------------------------|
|-------------------------------------------|
|---77777777--------------------------------|
|---77777777--77777777--99999999--55555555--|
|---55555555--77777777--99999999--55555555--|
|-------------55555555--77777777--33333333--|

Chorus: Part I
|-------------------------------------------|
|-------------------------------------------|
|---77777777--------------------------------|
|---77777777--77777777--99999999--55555555--|
|---55555555--77777777--99999999--55555555--|
|-------------55555555--77777777--33333333--|

Chorus:Part II
|--0-5-7--0-5-7--0-5-7--0-5-7--0-5-7--|
|-------------------------------------|
|-------------------------------------|(repeat several times..)
|-------------------------------------|
|-------------------------------------|
|-------------------------------------|

Bridge:
|-------------------------------|
|-------------------------------|
|-----------------77777---------|
|---99999--55555--77777--77777--|
|---99999--55555--55555--77777--|
|---77777--33333---------55555--|

|-----------------------------------|
|-----------------------------------|
|-----------------77777-------------|
|---99999--55555--77777--777777777--|
|---99999--55555--55555--777777777--|
|---77777--33333---------555555555--|

Verse:
|---------------------|
|---------------------|
|---7~----------------|
|---7~--7~--9~--5~----|(x2)
|---5~--7~--9~--5~----|
|-------5~--7~--3~----|

then...(palm mute)
|-------------------------------------------|
|-------------------------------------------|
|---77777777--------------------------------|
|---77777777--77777777--99999999--55555555--|
|---55555555--77777777--99999999--55555555--|
|-------------55555555--77777777--33333333--|

|----------------------------------------------|
|----------------------------------------------|
|---77777777-----------------------------------|
|---77777777--77777777--99999999--55555555555--|
|---55555555--77777777--99999999--55555555555--|
|-------------55555555--77777777--33333333333--|

Chorus:(Sabay na ung lead sa huli...)

|-------------------------------------------|
|-------------------------------------------|
|---77777777--------------------------------|
|---77777777--77777777--99999999--55555555--|
|---55555555--77777777--99999999--55555555--|
|-------------55555555--77777777--33333333--|

|--0-5-7--0-5-7--0-5-7--0-5-7--0-5-7--|
|-------------------------------------|
|-------------------------------------|
|-------------------------------------|
|-------------------------------------|
|-------------------------------------|

end!

un lng....hehe...great song!
            
Submit corrections

↑ Back to top | Tablatures and chords for acoustic guitar and electric guitar, ukulele, drums are parodies/interpretations of the original songs. You may use it for private study, scholarship, research or language learning purposes only