» » »

Hed P.E. - Swan Dive Tabs

Artists:  A B C D E F G H I J K L M N O P Q R S T U V W X Y Z # 

Swan Dive Tabs

(ver. 2) Click to play this song!
Hed P.E.
 Rating:
4/5 (4 votes)

 Swan Dive lessons Tabs too difficult? Try these video lessons and learn fast
 
                BAND-(hed) P.E
SONG-Swan Dive
ALBUM-Broke
Tuning-Drop D (D-A-D-g-b-e)


RIFF1-

D|-----9--10---10/7-7-7-6-6-6-------||
A|-----9--10---10/7-7-7-6-6-6-------||
D|-----9--10---10/7-7-7-6-6-6-------||

RIFF2-

D|--------------------------------||
A|--------------------------------||
D|----0-6-7-7/3-3-3p2-2-2-p1-1----||

RIFF3-

D|-------------------------------------------||
A|---------2---------1-----------------------||
D|----2p0-----0h1p0------0h1p0h1h2-----------||

hey i missed the little bits in this tabs but i can get em,so sorry about that.
            
Submit corrections


        Swan Dive lessons Hard to play? Try these video lessons and learn fast Swan Dive lessons
        
↑ Back to top | Tablatures and chords for acoustic guitar and electric guitar, ukulele, drums are parodies/interpretations of the original songs. You may use it for private study, scholarship, research or language learning purposes only