» » »

Hed P.E. - Jesus Tabs

Artists:  A B C D E F G H I J K L M N O P Q R S T U V W X Y Z # 

Jesus Tabs

(ver. 2) Click to play this song!
Hed P.E.
 Rating:
4/5 (4 votes)

 Jesus lessons Tabs too difficult? Try these video lessons and learn fast
 
                
Drop B (B,F#,B,E,G#,C#)

Verse:
---12-------------------
-------12--13-----------
---------------14--13---
------------------------
------------------------
------------------------

Chorus: “Jesus, Make everything all right”
-------------------------------------------------
-------------------------------------------------
-------------------------------------------------
-------------------------------------------------
---0-5/7-0-4---0-5-0-5-4---0-5/7-0-4---0-5-0-7---
-------------------------------------------------

Bridge:
------------------------------------------------------------
------------------------------------------------------------
------------------------------------------------------------
------------------------------------------------------------
------------------------------------------------------------
---2-0--2--2---2/5-5---5-8-5-7-5---2-0--0--2---2/5-5-4444---

---------------------------------------
---------------------------------------
---6-6-7-7-9-9-9-9-9---6-6-7-7-9-9-----
---6-6-7-7-9-9-9-9-9---6-6-7-7-9-9-5---
---4-4-5-5-7-7-7-7-7---4-4-5-5-7-7-5---
-----------------------------------5---

End:
-----------------------
-----------------------
---6-6-7-7-9-9-12-12---
---6-6-7-7-9-9-12-12---
---4-4-5-5-7-7-10-10---
-----------------------
            
Submit corrections


        Jesus lessons Hard to play? Try these video lessons and learn fast Jesus lessons
        
↑ Back to top | Tablatures and chords for acoustic guitar and electric guitar, ukulele, drums are parodies/interpretations of the original songs. You may use it for private study, scholarship, research or language learning purposes only