Home » H » Hed P.E. »

Hed P.E. - Crazy Legs Tabs

Artists:  A B C D E F G H I J K L M N O P Q R S T U V W X Y Z # 

Crazy Legs Tabs

(ver. 3) Click to play this song!
Hed P.E.
 Rating:
4/5 (4 votes)
                Transcription to "Crazy Legs" by hed pe

Tuning for this song is
B E A D F# B

Main Riff (Bass is the same, with slight variation)
B---------------------------------
F#--------------------------------
D---------------------------------
A---------------------------------
E---------------------------------
B--0--0--0-2-0----0-0---0-2-0-----
 
Chorus
B---------------------------------
F#--------------------------------
D---------------------------------
A--2---5--2--5--4--4--4--4/5--7---
E--2---5--2--5--4--4--4--4/5--7---
B--0---3--0--3--2--2--2--2/3--5---

That's it.  Positive.
            
Submit corrections

↑ Back to top | Tablatures and chords for acoustic guitar and electric guitar, ukulele, drums are parodies/interpretations of the original songs. You may use it for private study, scholarship, research or language learning purposes only