» » »

Hed P.E. - Bartender Tabs

Artists:  A B C D E F G H I J K L M N O P Q R S T U V W X Y Z # 

Bartender Tabs

(ver. 3) Click to play this song!
Hed P.E.
 Rating:
4/5 (4 votes)

 Bartender lessons Tabs too difficult? Try these video lessons and learn fast
 
                
Drop B (B,F#,B,E,G#,C#)

Intro/Verse:
gtr 1:
-------------------------------------------------------------
---10h11p10-9h10----9h10p9-8h9----8h9p8-7-9-6----5h6p5-4h5---
-------------------------------------------------------------
-------------------------------------------------------------
-------------------------------------------------------------
-------------------------------------------------------------

gtr 2:
-------10---------10---------10---------10---
-------10---------10---------10---------10---
-------10---------10---------10---------10---
---0---12---------12-----0---10---------9----
--------------7------------------------------
------------------------------------5--------

Chorus:
-------------------------
-------------------------
-------------------------
-------------------------
-----5---5---------------
---0---0---0-6-6-0-6-0---

Bridge:
------------------------
--------------5-----4---
--------------2-----2---
---8---8---3-----2------
---8---8---3-----2------
---8---8---3-----2------

Other Chorus:
-----------------------
-----------------------
-----7---7---5-5---5---
-----------------------
-----5---5---3-3---3---
---0---0---0-----0-----
            
Submit corrections


        Bartender lessons Hard to play? Try these video lessons and learn fast Bartender lessons
        
↑ Back to top | Tablatures and chords for acoustic guitar and electric guitar, ukulele, drums are parodies/interpretations of the original songs. You may use it for private study, scholarship, research or language learning purposes only