» » »

Hands Like Houses - Developments Tabs

Artists:  A B C D E F G H I J K L M N O P Q R S T U V W X Y Z # 

Developments Tabs

(ver. 2) Click to play this song!
Hands Like Houses
 Rating:
2.1/5 (27 votes)

 Developments lessons Tabs too difficult? Try these video lessons and learn fast
 
                intro.
e|----------------------------------------------------------9----|
B|-9/11\9---------9/11\9----------------------------------/9-9---|
G|--------8-11-8---------8-11-8--8/10\8------8/10\8--------------|
D|--------------------------------------11-8--------11-8---------|
A|---------------------------------------------------------------|
D|---------------------------------------------------------------|

e|-----------------------------/99--------------------------9-6--|
B|-9/11\9--------9/11\9-------------9-11-9-----------------------|
G|--------8-11-8--------8-11-8-------------10-11-10---6-8-6------|
D|---------------------------------------------------------------|
A|---------------------------------------------------------------|
D|---------------------------------------------------------------|

e|------------------------------------------------------------|
B|----7~------6~----------------------------------------------|
G|------------------------8~----------------------------------|
D|------------------------------------------------------------|
A|------------------------------------------------------------|
D|------------------------------------------------------------|

prechorus.
e|-----------9--9---------------------------------------------|
B|-7--7-6--6--------6-7-6-------------------------------------|
G|------------------------8-6---------------------------------|
D|------------------------------------------------------------|
A|------------------------------------------------------------|
D|------------------------------------------------------------|

chorus.
e|----------------------------------9--9------------------------------------|
B|--------------------------------------9--9--------------------------------|
G|-8-6-8-6-----8-6-8-6----------------------10--10-------8h10-10b12br10p8-8-|
D|---------8-6---------8-6-----6-8-----------------11-11--------------------|
A|-------------------------8-9----------------------------------------------|
D|--------------------------------------------------------------------------|

e|-11-9-11-9------11-9-11-9--------------------9--9--------------------------------|
B|-----------11-9-----------11-9--------9-11-------9--9----------------------------|
G|--------------------------------10-11----------------10--10-------8-10b12brp8-8--|
D|-----------------------------------------------------------11-11-----------------|
A|---------------------------------------------------------------------------------|
D|---------------------------------------------------------------------------------|
?
bridge 1.
e|-----------------|--------------------------|-----------------|-----------------|
B|-----------------|---------elevens----------|------ones-------|-----------------|
G|-----------------|--------------------------|-----------------|-----------------|
D|-9999-9-99-9-9-9-|-1111111-11-1111-11-11-11-|-1111-1-11-1-1-1-|-4444-4-44-4-4-4-|
A|-9999-9-99-9-9-9-|-1111111-11-1111-11-11-11-|-1111-1-11-1-1-1-|-4444-4-44-4-4-4-|
D|-9999-9-99-9-9-9-|-1111111-11-1111-11-11-11-|-1111-1-11-1-1-1-|-4444-4-44-4-4-4-|

e|----------|----------|-----------|----------|
B|----------|----------|-----------|----------|
G|-8-8-8-8--|-10101010-|-11111111--|-18181818-|
D|-x-x-x-x--|-x-x-x-x--|-x-x-x-x---|-x-x-x-x--|
A|-6-6-6-6--|-8-8-8-8--|-9-9-9-9---|-16161616-|
D|----------|----------|-----------|----------|

e|-9/14--16\13--9/14--18\13----|
B|-----------------------------|
G|-----------------------------|
D|-----------------------------|
A|-----------------------------|
D|-----------------------------|

chorus.
e|----------------------------------9--9------------------------------------|
B|--------------------------------------9--9--------------------------------|
G|-8-6-8-6-----8-6-8-6----------------------10--10-------8h10-10b12br10p8-8-|
D|---------8-6---------8-6-----6-8-----------------11-11--------------------|
A|-------------------------8-9----------------------------------------------|
D|--------------------------------------------------------------------------|

e|-11-9-11-9------11-9-11-9--------------------9--9--------------------------------|
B|-----------11-9-----------11-9--------9-11-------9--9----------------------------|
G|--------------------------------10-11----------------10--10-------8-10b12brp8-8--|
D|-----------------------------------------------------------11-11-----------------|
A|---------------------------------------------------------------------------------|
D|---------------------------------------------------------------------------------|

bridge 2.
e|---------------------------|--------------------------------------|
B|---------------------------|--------------------------------------|
G|---------------------------|--------------------------------------|
D|-9-9-9-----13---11--/--16\-|-9-9-9-----13---11------x-------------|
A|-9-9-9-----13---11--/--16\-|-9-9-9-----13---11------x-------------|
D|-9-9-9-----13---11--/--16\-|-9-9-9-----13---11------x-------------|

e|-14.-18.-16.-21.-------------|
B|-----------------------------|
G|-----------------------------|
D|-----------------------------|
A|-----------------------------|
D|-----------------------------|

chorus 2.
e|------------------------------------------------------------------|
B|-9-11-9----9------------------------------------------------------|
G|--------11---11-8-11-----8-10-8----8------------------------------|
D|--------------------------------11---11-8-11----------------------|
A|------------------------------------------------------------------|
D|------------------------------------------------------------------|

e|----------------------9--9----------------------------------------|
B|-9-11-9----9--------------9--9------------------------------------|
G|--------11---11-8-11----------10--10-------8h10-10b12br10p8-8-----|
D|------------------------------------11-11-------------------------|
A|------------------------------------------------------------------|
D|------------------------------------------------------------------|

chorus.
e|----------------------------------9--9------------------------------------|
B|--------------------------------------9--9--------------------------------|
G|-8-6-8-6-----8-6-8-6----------------------10--10-------8h10-10b12br10p8-8-|
D|---------8-6---------8-6-----6-8-----------------11-11--------------------|
A|-------------------------8-9----------------------------------------------|
D|--------------------------------------------------------------------------|

e|-11-9-11-9------11-9-11-9--------------------9--9--------------------------------|
B|-----------11-9-----------11-9--------9-11-------9--9----------------------------|
G|--------------------------------10-11----------------10--10-------8-10b12brp8-8--|
D|-----------------------------------------------------------11-11-----------------|
A|---------------------------------------------------------------------------------|
D|---------------------------------------------------------------------------------|

e|-9/14--16\13--9/14--18\13----|
B|-----------------------------|
G|-----------------------------|
D|-----------------------------|
A|-----------------------------|
D|-----------------------------|

End on B.
            
Submit corrections


        Developments lessons Hard to play? Try these video lessons and learn fast Developments lessons
        
↑ Back to top | Tablatures and chords for acoustic guitar and electric guitar, ukulele, drums are parodies/interpretations of the original songs. You may use it for private study, scholarship, research or language learning purposes only