» » »

Hands Like Houses - I Am Tabs

Artists:  A B C D E F G H I J K L M N O P Q R S T U V W X Y Z # 

I Am Tabs

(ver. 1) Click to play this song!
Hands Like Houses
 Rating:
4/5 (4 votes)

 I Am  lessons Tabs too difficult? Try these video lessons and learn fast
 
                Tuning: Drop C


Intro: 0:00 - 0:20
e|---------------------------------------------------------------------------|
B|---------------------------------------------------------------------------|
G|---------------------------------------------------------------------------|
D|---------------------------------------------------------------------------|
A|--5-5-5-8-8-8-----------------------5-5-5-8-8-8----------------------------|
E|--------------5-5-5-8-8-8-8-8-8-8----------------5-5-5-3-3-3-3-3-slide/----|

e|---------------------------------------------------------------------------|
B|---------------------------------------------------------------------------|
G|---------------------------------------------------------------------------|
D|---------------------------------------------------------------------------|
A|--5-5-5-8-8-8-----------------------5-5-5-8-8-8----------------------------|
E|--------------5-5-5-8-8-8-8-8-8-8---------------5-5-5-3-3-3-3-3-3-3--------|

e|------17----------15------17--13------15--13-------------------------------|
B|--15------15--13------15----------15----------15--13-15-15-15--------------|
G|---------------------------------------------------------------------------|
D|---------------------------------------------------------------------------|
A|---------------------------------------------------------------------------|
E|---------------------------------------------------------------------------|

e|------17----------15------17--13------15--13------13--12-------------------|
B|--15------15--13------15----------15----------15----------13--10-----------|
G|---------------------------------------------------------------------------|
D|---------------------------------------------------------------------------|
A|---------------------------------------------------------------------------|
E|---------------------------------------------------------------------------|


Verse 1: 0:20 - 0:34 = no guitar


Verse 1: 0:34 - 0:48
e|---------------------------------------------------------------------------|
B|---------------------------------------------------------------------------|
G|--7p5---5-7-slide/10-10--X2------------------------------------------------|
D|------7--------------------------------------------------------------------| 
A|---------------------------------------------------------------------------|
E|---------------------------------------------------------------------------|

e|--8p10----8-10-slide/13-13--X2---------------------------------------------|
B|-------10------------------------------------------------------------------|
G|---------------------------------------------------------------------------|  
D|---------------------------------------------------------------------------|
A|---------------------------------------------------------------------------|
E|---------------------------------------------------------------------------|


Pre-Chorus 1: 0;48 - 0;58
e|---------------------------------------------------------------------------|
B|---------------------------------------------------------------------------|
G|---------------------------------------------------------------------------|
D|-----------------7-----8-7-------------------------------------------------|
A|--8-------10---------------------------------------------------------------|
E|----0-5-8----8-3---3-5-----------------------------------------------------|

e|---------------------------------------------------------------------------|
B|---------------------------------------------------------------------------|
G|---------------------------------------------------------------------------|
D|-----------------7---------------------------------------------------------|
A|--8-------10---------------------------------------------------------------|
E|----0-5-8----8-3---3-5555--------------------------------------------------|

e|---------------------------------------------------------------------------|
B|---------------------------------------------------------------------------|
G|---------------------------------------------------------------------------|
D|-----------------7-----8-7-------------------------------------------------|
A|--8-------10---------------------------------------------------------------|
E|----0-5-8----8-3---3-5-----------------------------------------------------|


Chorus 1: 1:01 - 1:29
e|---------------------------------------------------------------------------|
B|---------------------------------------------------------------------------|
G|---------------------------------------------------------------------------|
D|-{8-----5-----0-----3---}--------------------------------------------------|
A|-{8-x8--5-x8--0-x8--3-x8}-X4-----------------------------------------------|
E|-{8-----5-----0-----3---}--------------------------------------------------|


Post-Chorus: 1:29 - 1:36
e|------17----------15------17--13------15--13-------------------------------|
B|--15------15--13------15----------15----------15--13-15-15-15--------------|
G|---------------------------------------------------------------------------|
D|---------------------------------------------------------------------------|
A|---------------------------------------------------------------------------|
E|---------------------------------------------------------------------------|

e|------17----------15------17--13------15--13------13--12-------------------|
B|--15------15--13------15----------15----------15----------13--10-----------|
G|---------------------------------------------------------------------------|
D|---------------------------------------------------------------------------|
A|---------------------------------------------------------------------------|
E|---------------------------------------------------------------------------|


Verse 2: 1:36 - 1:49
e|---------------------------------------------------------------------------|
B|---------------------------------------------------------------------------|
G|--7p5---5-7-slide/10-10--X2------------------------------------------------|
D|------7--------------------------------------------------------------------| 
A|---------------------------------------------------------------------------|
E|---------------------------------------------------------------------------|

e|--8p10----8-10-slide/13-13--X2---------------------------------------------|
B|-------10------------------------------------------------------------------|
G|---------------------------------------------------------------------------|  
D|---------------------------------------------------------------------------|
A|---------------------------------------------------------------------------|
E|---------------------------------------------------------------------------|


Pre-Chorus 2: 1:49 - 2:03
e|---------------------------------------------------------------------------|
B|---------------------------------------------------------------------------|
G|---------------------------------------------------------------------------|
D|-----------------7-----8-7-------------------------------------------------|
A|--8-------10---------------------------------------------------------------|
E|----0-5-8----8-3---3-5-----------------------------------------------------|
                                                                               X2
e|---------------------------------------------------------------------------|
B|---------------------------------------------------------------------------|
G|---------------------------------------------------------------------------|
D|-----------------7---------------------------------------------------------|
A|--8-------10---------------------------------------------------------------|
E|----0-5-8----8-3---3-5555--------------------------------------------------|


Chorus 2: 2:03 - 2:31
e|---------------------------------------------------------------------------|
B|---------------------------------------------------------------------------|
G|---------------------------------------------------------------------------|
D|-{8-----5-----0-----3---}--------------------------------------------------|
A|-{8-x8--5-x8--0-x8--3-x8}-X4-----------------------------------------------|
E|-{8-----5-----0-----3---}--------------------------------------------------|


Bridge: 2:31 - 2:57 (only electric guitar parts)

2:43
e|--13-12--------------------------------------------------------------------|
B|--------10-13-slide/15 15--------------------------------------------------|
G|---------------------------------------------------------------------------|
D|---------------------------------------------------------------------------|
A|---------------------------------------------------------------------------|
E|---------------------------------------------------------------------------|

2:51 + 2:55
e|--17b----------------------------------------------------------------------|
B|---------------------------------------------------------------------------|
G|---------------------------------------------------------------------------|
D|---------------------------------------------------------------------------|
A|---------------------------------------------------------------------------|
E|---------------------------------------------------------------------------|


Breakdown: 2:57 - 3:26
e|---------------------------------------------------------------------------|
B|---------------------------------------------------------------------------|
G|---------------------------------------------------------------------------|
D|---------------------------------------------------------------------------|
A|---------------------------------------------------------------------------|
E|--0-0-000-0-0-0-0-000-000000----0-0-000-0-0-0-0-0000-0-0-------------------|

e|---------------------------------------------------------------------------|
B|---------------------------------------------------------------------------|
G|---------------------------------------------------------------------------|
D|---------------------------------------------------------------------------|
A|---------------------------------------------------------------------------|
E|--8-8-888-8-8-8-8-888-88-88----5-5-555-5-5-5-5-5555-5-5--------------------|

e|---------------------------------------------------------------------------|
B|---------------------------------------------------------------------------|
G|---------------------------------------------------------------------------|
D|---------------------------------------------------------------------------|
A|--8-----------------------------8------------------------------------------|
E|----0-5-8-0-0-0-0-000-000000------0-5-8-0-0-0-0-0000-0-0-------------------|

e|---------------------------------------------------------------------------|
B|---------------------------------------------------------------------------|
G|---------------------------------------------------------------------------|
D|---------------------------------------------------------------------------|
A|---------------------------------------------------------------------------|
E|--8-8-888-8-8-8-8-888-88-88----5-5-555-5-5-5-5-5555-5-5--------------------|


Pre-Chorus Transition: 3:26 - 3:32
e|---------------------------------------------------------------------------|
B|---------------------------------------------------------------------------|
G|---------------------------------------------------------------------------|
D|---------------------------------------------------------------------------|
A|---------------------------------------------------------------------------|
E|--0-0-0-3-3-3-8-8-8-8-8-8-8-8-8-8------------------------------------------|

e|---------------------------------------------------------------------------|
B|---------------------------------------------------------------------------|
G|---------------------------------------------------------------------------|
D|---------------------------------------------------------------------------|
A|---------------------------------------------------------------------------|
E|--0-0-0-3-3-3-8-8-8-5-5-5-5-5--bass slide----------------------------------|


Chorus 3: 3:32 - 4:00
e|---------------------------------------------------------------------------|
B|---------------------------------------------------------------------------|
G|---------------------------------------------------------------------------|
D|-{8-----5-----0-----3---}--------------------------------------------------|
A|-{8-x8--5-x8--0-x8--3-x8}-X4-----------------------------------------------|
E|-{8-----5-----0-----3---}--------------------------------------------------|


Outro: 4:00 - 4:14
e|---------------------------------------------------------------------------|
B|---------------------------------------------------------------------------|
G|---------------------------------------------------------------------------|
D|---------------------------------------------------------------------------|
A|--5-5-5-8-8-8--------------------------------------------------------------|
E|--------------5-5-5-8-8-8-8-8-8-8------------------------------------------|

e|------17----------15------17--13------15--13-------------------------------|
B|--15------15--13------15----------15----------15--13-15-15-15--------------|
G|---------------------------------------------------------------------------|   X2
D|---------------------------------------------------------------------------|
A|---------------------------------------------------------------------------|
E|---------------------------------------------------------------------------|

e|------17----------15------17--13------15--13------13--12-------------------|
B|--15------15--13------15----------15----------15----------13--10-----------|
G|---------------------------------------------------------------------------|
D|---------------------------------------------------------------------------|
A|---------------------------------------------------------------------------|
E|---------------------------------------------------------------------------|


************************************

| /   slide up
| \   slide down
| h   hammer-on
| p   pull-off
| ~   vibrato
| +   harmonic
| x   Mute note
| b   Bend
| pb  Pre-bend
| br  Bend release
| pbr Pre-bend release
| brb Bend release bend

************************************            
Submit corrections


        I Am  lessons Hard to play? Try these video lessons and learn fast I Am  lessons
        
↑ Back to top | Tablatures and chords for acoustic guitar and electric guitar, ukulele, drums are parodies/interpretations of the original songs. You may use it for private study, scholarship, research or language learning purposes only