» » »

Hands Like Houses - Wb Chaw Pw Tabs

Artists:  A B C D E F G H I J K L M N O P Q R S T U V W X Y Z # 

Wb Chaw Pw Tabs

(ver. 1) Click to play this song!
Hands Like Houses
 Rating:
3.8/5 (26 votes)

 Wb Chaw Pw  lessons Tabs too difficult? Try these video lessons and learn fast
 
                Tuning:Standard Tuning
Beginning Solo(first count)
e|---------------------------------------------------------------------------|
B|--------------------10-----------------------------------------------------|
G|-----7/9-9/11-9/11-----7-9------7-9/11-9-7---------------------------------|
D|------------------------------9---------------7h9--------------------------|
A|---------------------------------------------------------------------------|
E|---------------------------------------------------------------------------|
Beginning Solo(second count)
e|---------------------------------------------------------------------------|
B|--------------------10------------------------10/12------------------------|
G|-----7/9-9/11-9/11----9/11-9----7-9/11-9-7---------------------------------|
D|-------------------------------9-------------------------------------------|
A|---------------------------------------------------------------------------|
E|---------------------------------------------------------------------------|

Chords
     D   Dbm   Bm   G    A
e|---5----4----2----3----5---------------------------------------------------|
B|---5----5----3----3----5---------------------------------------------------|
G|---7----6----4----4----6---------------------------------------------------|
D|---7----6----4----5----7---------------------------------------------------|
A|---5----4----2----5----7---------------------------------------------------|
E|------------------3----5---------------------------------------------------|

  Picking progression         
e|--------------------------------0------------------------------------------|
B|---------5---------5--------------5----------------------------------------|
G|-------7---7-----6---6--------4-------------4--------6h7-------------------|  
D|-----7---------6------------4-------------5--------------------------------|
A|---5---------4------------2-------------5----------7-----------------------|
E|--------------------------------------3----------5-------------------------|
            
Submit corrections


        Wb Chaw Pw  lessons Hard to play? Try these video lessons and learn fast Wb Chaw Pw  lessons
        
↑ Back to top | Tablatures and chords for acoustic guitar and electric guitar, ukulele, drums are parodies/interpretations of the original songs. You may use it for private study, scholarship, research or language learning purposes only