» » »

Halsey - Hurricane Tabs

Artists:  A B C D E F G H I J K L M N O P Q R S T U V W X Y Z # 

Hurricane Tabs

(ver. 2) Click to play this song!
Halsey
 Rating:
4.3/5 (10 votes)

 Hurricane  lessons Tabs too difficult? Try these video lessons and learn fast
 
                e|--3--3--2---------------------------------------------------------------------|
B|--3--3--3---------------------------------------------------------------------|
G|--0--0--2---------------------------------------------------------------------|
D|--0--2------------------------------------------------------------------------|
A|--2--3------------------------------------------------------------------------|
E|--3---------------------------------------------------------------------------|

e|--3----3------|
B|-----3---3----|
G|--------------|
D|--------------|
A|--------------|
E|--3-----------| X2

e|--3----3------|
B|-----3---3----|
G|--------------|
D|--------------|
A|--3-----------|
E|--------------| X2 

e|--3----3------|
B|-----3---3----|
G|--------------|
D|--------------|
A|--------------|
E|--3-----------| X2

e|--2----2---2-|
B|-----3---3---|
G|-------------|
D|-------------|
A|--0----------|
E|-------------| X2



            
Submit corrections


        Hurricane  lessons Hard to play? Try these video lessons and learn fast Hurricane  lessons
        
↑ Back to top | Tablatures and chords for acoustic guitar and electric guitar, ukulele, drums are parodies/interpretations of the original songs. You may use it for private study, scholarship, research or language learning purposes only