» » »

Halsey - Hurricane Tabs

Artists:  A B C D E F G H I J K L M N O P Q R S T U V W X Y Z # 

Hurricane Tabs

(ver. 1) Click to play this song!
Halsey
 Rating:
3.8/5 (25 votes)

 Hurricane  lessons Tabs too difficult? Try these video lessons and learn fast
 
                Guitar 1:

e|---------------------------------------------------------------------------|
B|-8-10-8~-------------------------------------------------------------------|
G|---------------------------------------------------------------------------|
D|---------------------------------------------------------------------------|
A|---------------------------------------------------------------------------|
E|---------------------------------------------------------------------------|

Verse 1:
Guitar 1 plays intro when necessary.

Guitar 2 is silent.

Pre-Chorus: (You can hear these parts come in)

Guitar 1 plays this, Guitar 2 is silent:

e|-12-12---------------------------------------------------------------------|
B|---------------------------------------------------------------------------|
G|---------------------------------------------------------------------------|
D|---------------------------------------------------------------------------|
A|---------------------------------------------------------------------------|
E|---------------------------------------------------------------------------|

then there's a pause and right before the chorus starts this is played (still Guitar 1):


e|-10-10-8-8-----------------------------------------------------------------|
B|---------------------------------------------------------------------------|
G|---------------------------------------------------------------------------|
D|---------------------------------------------------------------------------|
A|---------------------------------------------------------------------------|
E|---------------------------------------------------------------------------|

Chorus:

Guitar 1 plays this when necessary during the 2nd part of the chorus:

e|---------------------------------------------------------------------------|
B|-10-8-10-10-8-10-5~--------------------------------------------------------|
G|---------------------------------------------------------------------------|
D|---------------------------------------------------------------------------|
A|---------------------------------------------------------------------------|
E|---------------------------------------------------------------------------|

Guitar 2 plays this throughout the chorus. It is not hard to hear the chord changes:
If you'd like, play only the notes on the low E string. It sounds good too.

e|---------------------------------------------------------------------------|
B|---------------------------------------------------------------------------|
G|---------------------------------------------------------------------------|
D|-7--------10--------5--------2---------------------------------------------| x2
A|-7-strum--10-strum--5-strum--2-strum---------------------------------------|
E|-5--------9---------3--------0---------------------------------------------|

Verse 2:

Guitar 1 when necessary:

e|---------------------------------------------------------------------------|
B|-10-8-10-------------------------------------------------------------------|
G|---------------------------------------------------------------------------|
D|---------7-5-7-------------------------------------------------------------|
A|---------------------------------------------------------------------------|
E|---------------------------------------------------------------------------|

Guitar 2 is silent.

Pre-Chorus:

Guitar 1:

e|-10-10-8-8---8-8-----------------------------------------------------------|
B|---------------------------------------------------------------------------|
G|---------------------------------------------------------------------------|
D|------------------7-5-7----------------------------------------------------|
A|---------------------------------------------------------------------------|
E|---------------------------------------------------------------------------|

Guitar 2 is silent.

Chorus:

Guitar 1 plays this when necessary during the 2nd part of the chorus:

e|---------------------------------------------------------------------------|
B|-10-8-10-10-8-10-5~--------------------------------------------------------|
G|---------------------------------------------------------------------------|
D|---------------------------------------------------------------------------|
A|---------------------------------------------------------------------------|
E|---------------------------------------------------------------------------|

Guitar 2 plays this throughout the chorus. It is not hard to hear the chord changes:
If you'd like, play only the notes on the low E string. It sounds good too.

e|---------------------------------------------------------------------------|
B|---------------------------------------------------------------------------|
G|---------------------------------------------------------------------------|
D|-7--------10--------5--------2---------------------------------------------| x2
A|-7-strum--10-strum--5-strum--2-strum---------------------------------------|
E|-5--------9---------3--------0---------------------------------------------|

Bridge:

Guitar 1 plays this when necessary:

e|---------------------------------------------------------------------------|
B|-10-8-10-10-8-10-5~--------------------------------------------------------|
G|---------------------------------------------------------------------------|
D|---------------------------------------------------------------------------|
A|---------------------------------------------------------------------------|
E|---------------------------------------------------------------------------|

Guitar 2 (optional):

e|---------------------------------------------------------------------------|
B|---------------------------------------------------------------------------|
G|---------------------------------------------------------------------------|
D|---------------------------------------------------------------------------|
A|---------------------------------------------------------------------------|
E|-111111-111111-1000000-000000-0111111-555555-333333-11111------------------|

continue strumming fret 1 of low E until chorus begins again.

Chorus:

Guitar 1 plays this when necessary during the 2nd part of the chorus:
If you'd like, play only the notes on the low E string. It sounds good too.

e|---------------------------------------------------------------------------|
B|-10-8-10-10-8-10-5~--------------------------------------------------------|
G|---------------------------------------------------------------------------|
D|---------------------------------------------------------------------------|
A|---------------------------------------------------------------------------|
E|---------------------------------------------------------------------------|

Guitar 2 plays this throughout the chorus. It is not hard to hear the chord changes:

e|---------------------------------------------------------------------------|
B|---------------------------------------------------------------------------|
G|---------------------------------------------------------------------------|
D|-7--------10--------5--------2---------------------------------------------| x2
A|-7-strum--10-strum--5-strum--2-strum---------------------------------------|
E|-5--------9---------3--------0---------------------------------------------|            
Submit corrections


        Hurricane  lessons Hard to play? Try these video lessons and learn fast Hurricane  lessons
        
↑ Back to top | Tablatures and chords for acoustic guitar and electric guitar, ukulele, drums are parodies/interpretations of the original songs. You may use it for private study, scholarship, research or language learning purposes only