» » »

Halsey - Ghost Tabs

Artists:  A B C D E F G H I J K L M N O P Q R S T U V W X Y Z # 

Ghost Tabs

(ver. 3) Click to play this song!
Halsey
 Rating:
2.3/5 (23 votes)

 Ghost lessons Tabs too difficult? Try these video lessons and learn fast
 
                Intro : 

    (1st) (2nd)   (3rd)   (4th) 
e|---3------3-------3-------2------------------------------------------------|
B|---3------3-------3-------3------------------------------------------------|
G|--------------------------2------------------------------------------------|
D|---2------2----------------------------------------------------------------|
A|---2------3-------2--------------------------------------------------------|
E|------------------3--------------------------------------------------------|

Verse 1:
I don't like them innocent , I don't want no face fresh

e|-------------------3-------------------------------------------------------|
B|-------------------3-------------------------------------------------------|
G|---------------------------------------------------------------------------|
D|-------------------2-------------------------------------------------------|
A|-------------------2-------------------------------------------------------|
E|---------------------------------------------------------------------------|

Want them wearing leather begging, let me be your taste test 

e|-------------------3-------------------------------------------------------|
B|-------------------3-------------------------------------------------------|
G|---------------------------------------------------------------------------|
D|-------------------2-------------------------------------------------------|
A|-------------------3-------------------------------------------------------|
E|---------------------------------------------------------------------------|

I like the sad eyes, bad guys, mouth full of white lies

e|-----------3---------------------------------------------------------------|
B|-----------3---------------------------------------------------------------|
G|---------------------------------------------------------------------------|
D|---------------------------------------------------------------------------|
A|-----------2---------------------------------------------------------------|
E|-----------3---------------------------------------------------------------|

Kiss me in the corridor, be quick to tell me goodbye

e|----2----------------------------------------------------------------------|
B|----3----------------------------------------------------------------------|
G|----2----------------------------------------------------------------------|
D|---------------------------------------------------------------------------|
A|---------------------------------------------------------------------------|
E|---------------------------------------------------------------------------|

And you say that you're no good for me, cause i'm always tugging at your sleeve

e|----3---------------------------------------3------------------------------|
B|----3---------------------------------------3------------------------------|
G|---------------------------------------------------------------------------|
D|----2---------------------------------------2------------------------------|
A|----2---------------------------------------3------------------------------|
E|---------------------------------------------------------------------------|

And I swear I hate you when you leave, but I like it anyway

e|--3------------------------------------2-----------------------------------|
B|--3------------------------------------3-----------------------------------|
G|---------------------------------------2-----------------------------------|
D|---------------------------------------------------------------------------|
A|--2------------------------------------------------------------------------|
E|--3------------------------------------------------------------------------|

My ghost where'd you go? I can't find you in the body sleeping next to me

e|--3-------------------3-------------3-------------------------2------------|
B|--3-------------------3-------------3-------------------------3------------|
G|--------------------------------------------------------------2------------|
D|--2-------------------2----------------------------------------------------|
A|--2-------------------3-------------2--------------------------------------|
E|------------------------------------3--------------------------------------|

My ghost where'd you go? What happened to the soul that you used to be?

e|--3-------------------3--------3--------------------------2----------------|
B|--3-------------------3--------3--------------------------3----------------|
G|----------------------------------------------------------2----------------|
D|--2-------------------2----------------------------------------------------|
A|--2-------------------3--------2-------------------------------------------|
E|-------------------------------3-------------------------------------------|

Verse 2 is the same as Verse 1

Repeat Chorus 

Bridge: (Strum each chord once or check out the original performance:
https://www.youtube.com/watch?v=xv-fqXGum2g

  I'm searching for something that I can't reach

e|------3-------------3------------3--------2--------------------------------|
B|------3-------------3------------3--------3--------------------------------|
G|------------------------------------------2--------------------------------|
D|------2-------------2------------------------------------------------------|
A|------2-------------3------------2-----------------------------------------|
E|---------------------------------3-----------------------------------------|            
Submit corrections


        Ghost lessons Hard to play? Try these video lessons and learn fast Ghost lessons
        
↑ Back to top | Tablatures and chords for acoustic guitar and electric guitar, ukulele, drums are parodies/interpretations of the original songs. You may use it for private study, scholarship, research or language learning purposes only