» » »

Halsey - Ghost Tabs

Artists:  A B C D E F G H I J K L M N O P Q R S T U V W X Y Z # 

Ghost Tabs

(ver. 2) Click to play this song!
Halsey
 Rating:
1.9/5 (28 votes)

 Ghost lessons Tabs too difficult? Try these video lessons and learn fast
 
                INTRO | VERSE | CHORUS
e|-----3-3--------3-3------3-3------3-3-------------|
B|-----3-3--------3-3------3-3------3-3-------------|
G|--------------------------------------------------|
D|-------------------------------0------------------| x5
A|---2---2--0h2-3---3--0-------0------0--0----------|
E|-----------------------3---3----------------------|

e|-----3-3--------3-3------3-3-----3---3-3----------|
B|-----3-3--------3-3------3-3-------------3--------|
G|-----------------------------------2--------------|
D|-------------------------------0------------------| 
A|---2---2--0h2-3---3--0-------0--------------------|
E|-----------------------3---3----------------------|

VERSE | CHORUS
e|-----3-3--------3-3------3-3------3-3-------------|
B|-----3-3--------3-3------3-3------3-3-------------|
G|--------------------------------------------------|
D|-------------------------------0------------------| x3
A|---2---2--0h2-3---3--0-------0------0--0----------|
E|-----------------------3---3----------------------|

e|-----3-3--------3-3------3-3-----3---3------------|
B|-----3-3--------3-3------3-3----------------------|
G|-----------------------------------2--------------|
D|-------------------------------0------------------| 
A|---2---2--0h2-3---3--0-------0--------------------|
E|-----------------------3---3----------------------|


BRIDGE 
e|-------3-----3-3-------3---3-----2-3p2---2--------|
B|---------3-3-----3----------3-3------------3------|
G|-------------------0-------------------2----------|
D|---------------------0--0-------------------------|
A|---2----------------------------------------------|
E|-----3--------------------------------------------|

FINAL CHORUS 
e|-----3-3--------3-3------3-3------3-3-------------|
B|-----3-3--------3-3------3-3------3-3-------------|
G|--------------------------------------------------|
D|-------------------------------0------------------| x2
A|---2---2--0h2-3---3--0-------0------0--0----------|
E|-----------------------3---3----------------------|

e|-----3-3--------3-3------3-3-----3---2------------|
B|-----3-3--------3-3------3-3----------------------|
G|-----------------------------------2--------------|
D|-------------------------------0------------------| 
A|---2---2--0h2-3---3--0-------0--------------------|
E|-----------------------3---3----------------------|
            
Submit corrections


        Ghost lessons Hard to play? Try these video lessons and learn fast Ghost lessons
        
↑ Back to top | Tablatures and chords for acoustic guitar and electric guitar, ukulele, drums are parodies/interpretations of the original songs. You may use it for private study, scholarship, research or language learning purposes only