Home » G » Gregorian Chant »

Gregorian Chant - Regina Caeli Tabs

Artists:  A B C D E F G H I J K L M N O P Q R S T U V W X Y Z # 

Regina Caeli Tabs

(ver. 2) Click to play this song!
Gregorian Chant
 Rating:
4/5 (4 votes)
                Regina Caeli

Gregorian Chant for the Easter Season!
  (a dot means to hold the note. There is no time signature)

 
e --------------------------------------------------------------------------
b --------------------------------------------------------------------------
g --------0---------0----2.----3----2----0.----3----2----0------------------
D ---3---------3----------------------------------------------3.------------
A --------------------------------------------------------------------------
E --------------------------------------------------------------------------

    Re -  gi - na  Cae - li   lae - ta - re,   al - le - lu - ia:

 
e --------------------------------------------------------------------------
b --------1.----1----3----1-------------------------------------------------
g -----------------------------3----2---------0----2.----3----2----0--------
D ---3-----------------------------------3------------------------------3.--
A --------------------------------------------------------------------------
E --------------------------------------------------------------------------

    Qui - a   quem   me - ru - i - sti  por - ta - re,   al - le - lu - ia:


e -----------------------------------------------------------------------
b ---1----1----3----1.----1-----------------------------------1.---------
g ----------------------------------0----------0----2----3---------------
D -----------------------------3---------3.------------------------------
A -----------------------------------------------------------------------
E -----------------------------------------------------------------------

    Re - sur- rex - it,  si - cut  dix - it,   al - le - lu - ia:


e ----------------------------------------------------------------------
b ---1------------------------------------------------------------------
g -------------0----3----2----0---------------0----0.-------------------
D --------3------------------------3.----2---------------3.-------------
A ----------------------------------------------------------------------
E ----------------------------------------------------------------------

     O - ra   pro   no - bis  De - um,   al - le - lu - ia.


Regina Caeli laetare, alleluia:       {Queen of Heaven, rejoice, alleluia}
Quia quem meruisti portare, alleluia: {Because He Whom you merited to bear...}
Resurrexit, sicut dixit, alleluia:    {Has risen as He said, alleluia}
Ora pro nobis Deum, alleluia.         {Pray for us to God, alleluia}
            
Submit corrections

↑ Back to top | Tablatures and chords for acoustic guitar and electric guitar, ukulele, drums are parodies/interpretations of the original songs. You may use it for private study, scholarship, research or language learning purposes only