» » »

Green Day - Warning Tabs

Artists:  A B C D E F G H I J K L M N O P Q R S T U V W X Y Z # 

Warning Tabs

(ver. 2) Click to play this song!
Green Day
 Rating:
4/5 (4 votes)
                Okay, here is the new one from Green Day.

   There really aren't any chords strummed in the song, but if you
   want to play chords, then you can play:

  A/D/G/D thoughout mostly the whole song.

  The main riff the the guitarist play is all the verse and choruses
  is:

e-----------------------------------
B-----------------------------------
G------------------------------------
D---------0-0-2-4-5-5-4-2-0-0--------
A-0-0-2-4----------------------4-2---
E-------------------------------------

also, the bridge is:

e-----------------------------
B----------------------------
G----------------------------
D----------------------------
A--0-4-0------0-4-4-0--------
E---------3-0----------3-0--


  Well, that's pretty much the whole song.  Hope this helps!
            
Submit corrections

↑ Back to top | Tablatures and chords for acoustic guitar and electric guitar, ukulele, drums are parodies/interpretations of the original songs. You may use it for private study, scholarship, research or language learning purposes only