» » »

Green Day - Scumbag Tabs

Artists:  A B C D E F G H I J K L M N O P Q R S T U V W X Y Z # 

Scumbag Tabs

(ver. 3) Click to play this song!
Green Day
 Rating:
4/5 (4 votes)
                intro and main riff :

e-------------------------------------------------------------------
B-------------------------------------------------------------------
G-------------------------------------------------------------------
D----------6--6--6--6--6--6--6--6--6--6--6-------------------------- x 2
A----4--6--4--4--4--4--4--4--4--4--4--4--4--------------------------
E----2--4-----------------------------------------------------------

"you come around every now and then"


e-------------------------------------------------------------------
B-------------------------------------------------------------------
G-------------------------------------------------------------------
D---6--------------------------------------------------------------- x 2
A---4--6--4--4--4--4--4--4--4--4--4--4--4---------------------------
E------4--2--2--2--2--2--2--2--2--2--2--2---------------------------
"you got a reasanable profet scumbag with..."

inturlude bit :


e-------------------------------------------------------------------
B-------------------------------------------------------------------
G-------------------------------------------------------------------
D---------------------------6--6--6--6--6--6--6---------------------
A----8--8--8--8--8--8--8-6--4--4--4--4--4--4--4---------------------
E----6--6--6--6--6--6--6-4------------------------------------------
"never thought i'd see the likes of you 'round this place"

place all of above again then once you've finished the interlude bit you
play the main riff once then theres the solo

e-------------------------------------------------------------------
B-------------------------------------------------------------------
G-------------------------------------------------------------------
D-----------------------------------6-6-----------------------------
A---8-8-6-8-8-6-8-6-4-8-8-6-8-8-6-8---------------------------------
E-------------------------------------------------------------------

e-------------------------------------------------------------------
B-------------------------------------------------------------------
G-------------------------------------------------------------------
D-------------------------------------------------------------------
A--4-4-4-4-3-3-3-3-1-1-1-1-0-0-0-0-4-4-4-4-3-3-3-3-1-1-1-1-1--------
E--------------------------------------------------4-4-4-4-4--------

then you play the hole thing again till you get to the interlude you play the interlude over 
and overr again then you play the main riff and end at the end of that
            
Submit corrections

↑ Back to top | Tablatures and chords for acoustic guitar and electric guitar, ukulele, drums are parodies/interpretations of the original songs. You may use it for private study, scholarship, research or language learning purposes only